Category: Chords


Walk Through The Fire chords – ZAYDE WØLF Vsion 2

 walk through the fire (feat. Ruelle) -  zayde wølf
standard tuning
capo 1
Chords:
 Em ,  C ,  G ,  D
N.C. means no chord
[Verse 1]
             Em
I'm always wondering
               C
If it's ever gonna end
        G
I can feel it in my bones
I can feel it in my bones
 D  -  Em
   Standing in the dust
            C
Of what's left of us
        G
I can see you in my soul
I can see you in my soul
         D  -  Em
Woah oh oh oh
[Pre-Chorus]
 Em
Did we take too many chances
 C
  Did we let too many pass us
 G
  Did we throw it all away
                             D  -  Em
Did we throw it all away
 Em
Did we light too many matches
 C
  Turn ourselves into these ashes
 G
  Did we throw it all away
N.C.
Did we throw it all away
[Chorus]
     Em C
We walk through the fire
      G
Is there a way out
      D
Is there a way out
     Em C
We walk through the fire
      G
Is there a way out
      D
Is there a way out
[Verse 2]
           Em
I try to understand
            C
How we're here again
         G
In the middle of the storm
In the middle of the storm
        D  -  Em
There's no way to go (no way to go)
                C
But straight through the smoke (straight through the smoke)
           G
And the fight is all we know
                            D  -  Em
The fight is all we know
[Pre-Chorus]
 Em
Did we take too many chances
 C
  Did we let too many pass us
 G
  Did we throw it all away
                             D  -  Em
Did we throw it all away
 Em
Did we light too many matches
 C
  Turn ourselves into these ashes
 G
  Did we throw it all away
N.C.
Did we throw it all away
[Chorus]
     Em C
We walk through the fire
      G
Is there a way out
      D
Is there a way out
     Em C
We walk through the fire
      G
Is there a way out
      D
Is there a way out...
          Em   -   C   -   G   -   D
Of the fire
[Bridge]
                          Em      -     C
I wanna know is there a way out
             G       -     D
Is there a way out
 Em   -   C G
Show me the way out
             D
Is there a way out
[Ending]
      Em C
We walk through the fire
      G
Is there a way out
      D
Is there a way out

Moln chords – Karakou

 Artist: Karakou
Song: Moln
Tuning: Standard (EADGBe)
Tabbed: Mattelito
[Intro]
 G  (palm mute och picka ackordet)
[Verse 1]
 G
Lägg dig ned igen
 Em
Andas djupt och tänk
 C
Vad var det nu igen
 G
Som blev kvar
 G
Har du något svar
 Em
På mina frågor?
 C
Läste du idag
 G
Mitt brev?
[Mellanspel]
 G Em C G
[Verse 2]
 G
Flyg upp i bland moln
 Em
Segla med en båt
 C G
Flyg så långt det går, iväg
 G
Nånstans
 G
Nätter utan sömn
 Em
Någon stal min dröm
 C
Jag tände ljus i snön
 G
För dig
[Mellanspel]
 G Em C Am C
[Verse 3]
 G
Flytta dig närmare mig nu
                           Em
Och jag vill inte men jag vet att ikväll
 Em
Kommer snart ta slut
                                 C
Och du har sagt att då måste du gå
 C
Och jag undrar så
                                 G
Jag måste få veta vad du tänker på
 G
Det kommer närmre nu, det kommer närmre nu, det kommer närmre nu, närmre nu
             Em
Det brinner det brinner (??)
 Em
Vi kanske hinner innan timmen är slut
           C
Timmen är slut
 C
Därför jag?
 C
Du gör mig svag
 C G
Jag skickar flera SMS utan ett enda svar
[Outro]
 G
Lägg dig ned igen
Andas djupt och tänk
Vad var det nu igen
Som blev kvar?

All You Gotta Be When You Are 23 Is Yourself chords – Free Cake For Every Creature

 [intro]
 A E C#m D  2x
[verse]
 A E C#m
   i'll buy your ticket to the show
               D
i'll buy you lemonade
 A E C#m
if i only had fifty dollars to my name
                             D
i know you'd do the same
 A E
moving to a new city
        C#m D
shakey footing till ya kiss me
         A
now i'm philadelphia crushin'
            E
walk three miles with me, honey
          C#m D
just for fun
[chorus]
 E D
cause all you gotta be when you're 23
    A
is yourself
                 E
call yourself an artist,
                  D
work part-time at whole foods
          A
it's all good
[verse]
                     E
displaced, thoughts racing
     C#m D
do i settle down or keep moving
      A E
i am 23 years old today
                        C#m D
where's my birthday cake?
                   A
feel better cause with you,
          E
life's vacation
               C#m
travel to the kitchen,
              D
get wylde on green tea
             A
re-read our favorite stories,
                 E
remember who we used to be
         C#m
then forget it
                                    D
cause we've got a whole new city to see
[chorus]
 E D
and all you gotta be when you're 23
    A
is yourself
                 E
call yourself an artist,
                  D
work part-time at whole foods
          A
it's all good
[outro]
                    E
wear stupid lookin' shoes
                D
defuse leftover teenage blues
            A
it's all good

Through The Eyes Of Uriel chords – Alesana

 [Intro]
 Am Em E F Gm Am
On the edge of reason, beyond understanding
        Em F G
Silent she waits, perfect oblivion
 A E F G A E F G
    She’s crawling to the end,      perfect oblivion
[Interlude]
 A E F G A E F
[Verse 1]
   Hm Em
I live behind mirrors within a prison without any bars
              A C F C F
Yet I remain lost to the world
    E
In hell I’m suspended within a prism
 Cm Am C Dm Am F
So-ooo many walls, so many years
 Am C F
Too often I’ve watched them die
[Chorus]
 D Em C
Images of yesterday feeling so far away
 F C G Em
   I can’t let go of the past, the years, the sweet romance
 Am Dm C
   I am a ticking time bomb waiting in a trance
            F C Am
I need you more tonight than you will ever know
                                   Dm C Em
I swear to never forget this heartbreaking dance
[Verse 2]
 Em
The hell of being trapped is simply not a match for death
 A Em C F
Heaven  awaits
       Em
Now I know not to be afraid of the end
 Am C F C
My love awaits, will you be there?
 Am C F
Take me away     (I’m ready, I’ll be home soon)
[Chorus]
 D Em C
Images of yesterday feeling so far away
 F C G Em
   I can’t let go of the past, the years, the sweet romance
 Am Dm C
   I am a ticking time bomb waiting in a trance
            F C Am
I need you more tonight than you will ever know
                                   Dm C Em
I swear to never forget this heartbreaking dance
[Verse 3]
 Em Bb
Beautiful pure silence, come on! Embrace me
 A
sweet perfect nothing swallow my fears, come on!
 Bb C
If I had just one wish
 Am Gm Am
Bababda  Bababda Baaaa
 Am
I’d choke prophets, hang angels, burn children
 Bb A Bb C
oh, I’d drink oceans, eat the moon, flood the world, end everything
   A E F
breathe in, breathe out
    Am Em F
we could run far away but then how would we sleep at night?
 Am Em F
I’ve been looking for the words to say our last goodbyes
 Am Em F Dm F
Hold on to fleeting hopes that I just might survive
[Outro] (Repeat 5x while fading out)
 Am Em C
Give in to the pleasure
      F
make it last forever
 Am F C
Hold on hold on to everything we are

Undivided Tabs – Asking Alexandria Vsion 3

 [Intro]
C#|---------------------------------------------------------------------------|
G#|---------------------------------------------------------------------------|
E |---------------------------------------------------------------------------|
B |---------------------------------------------------------------------------|
F#|--0--0-0--0-0--5--3--5--0---0-0--0-0--1------------------------------------|
B |--0--0-0--0-0--5--3--5--0---0-0--0-0--1-(1= 8x times)----------------------|
C#|---------------------------------------------------------------------------|
G#|---------------------------------------------------------------------------|
E |---------------------------------------------------------------------------|
B |---------------------------------------------------------------------------|
F#|--0--0-0--0-0--5--3--5--0---0-0--0-0--6------------------------------------|
B |--0--0-0--0-0--5--3--5--0---0-0--0-0--6-(6= 6x times)----------------------|
C#|---------------------------------------------------------------------------|
G#|---------------------------------------------------------------------------|
E |---------------------------------------------------------------------------|
B |---------------------------------------------------------------------------|
F#|---------------------------------------------------------------------------|
B |--0--0-0--0-0--5--3--5--0---0-0--0-0--1-1-1-1-1-1-1-1----------------------|
C#|---------------------------------------------------------------------------|
G#|---------------------------------------------------------------------------|
E |---------------------------------------------------------------------------|
B |---------------------------------------------------------------------------|
F#|---------------------------------------------------------------------------|
B |--0--0-0--0-0--5--3--5---6-6-6-6-6-6---------------------------------------|
C#|---------------------------------------------------------------------------|
G#|---------------------------------------------------------------------------|
E |---------------------------------------------------------------------------|
B |---------------------------------------------------------------------------|
F#|---------------------------------------------------------------------------|
B |--0--0-0--0-0--5--3--5--0---0-0--0-0--1-1-1-1-1-1-1-1----------------------|
C#|---------------------------------------------------------------------------|
G#|---------------------------------------------------------------------------|
E |---------------------------------------------------------------------------|
B |---------------------------------------------------------------------------|
F#|-----------------------------------------------[A.H]-----------------------|
B |--0--0-0--0-0--5--3--5---6-6-6-6-6-6--0--0--x-8(b)10-----------------------|
[Chorus]
C#|---------------------------------------------------------------------------|
G#|---------------------------------------------------------------------------|
E |---------------------------------------------------------------------------|
B |---------------------------------------------------------------------------|
F#|--0-(x8)---3-(x8)---5-(x8)---1-(x8)---0-(x8)---3-(x8)---6-(x8)-0-1-313-----|
B |--0--------3--------5--------1--------0--------3--------6------0-1-313-----|
[2nd Verse Riff]
C#|---------------------------------------------------------------------------|
G#|---------------------------------------------------------------------------|
E |---------------------------------------------------------------------------|
B |---------------------------------------------------------------------------|
F#|---------------------------------------------------------------------------|
B |--0-0-0-0--0--0---0-0-0-0-0-0-0-0---(x3-times)--0-0-0-0--0--0---8--7--5--7-|
[Bridge]
C#|---------------------------------------------------------------------------|
G#|------------

Save Me From Myself chords – Hanson

 Hi all, first time tabbing any song.
Any corrections please go ahead drop me a message.
 Jonathan Felices
From Gibraltar
Hanson
Save me from Myself
Tuning- Standard
[Intro]
 D G D G
e|-2--0--2--0--2--0--2--0---3--2--3--2--3--2--3--2--------------|
B|-3--3--3--3--3--3--3--3---3--3--3--3--3--3--3--3--------------|
G|-2--2--2--2--2--2--2--2---0--0--0--0--0--0--0--0--------------|
D|-0--0--0--0--0--0--0--0---0--0--0--0--0--0--0--0--------------|
A|--------------------------------------------------------------|
E|--------------------------------------------------------------|
    D G
[Verse 1]
 D G A D
Amelia was always the one for me but she, she wouldn’t stay
 Bm G A D
On a warm day, I came home to find that she had sailed away
 G D A Bm
Maybe I am broken,  in some way I can tell
 G D A              (Let chord ring)
 I don’t wanna change but lord knows that I need some help
                   D
To save me from myself
[Instrumental]
 D G
[Verse 2]
 D G A D
Cecelia with flowers in her hair was like the sun, brought me the light
    Bm G A D
And I can’t tell you for the life of me why I would choose to let it burn out
 G D A Bm
I wish I was numb,  alone here in my cell
 G D A
 Cause something in my heart is making me not feel so well
                          D
Won’t you save me from myself
[Instrumental]
 D G
[Chorus]
 Em G
Oh I get no sleep ‘cause I’m all alone
        Bm A
Like a living shadow where there once was bone
 Em G
One cut deep and the other went sour
        Bm A
And no one’s to blame but I feel so shattered
 G D A Bm
Maybe I am lacking  still inside my shell
 G D A              (Let chord ring)
 ‘Cause I keep making waves and falling victim to the swell
                          D
Please save me from myself
[Outro]
 D G
It's no good
Myself
Please save me from Myself                                                                  

Half A Heart Tabs – One Direction Vsion 4

 Capo 5th Fret
Standard Tuning
[Intro]
         G (x2)
e|---------3----------|
B|---------3--3---3---|
G|--------------0-----|
D|--------------------|
A|------0-------------|
E|---3----------------|
[Verse]
         G (x2)            D/F# (x2)           Em (x2)             C (x2)
e|---------3-------------------------------------------------------------------|
B|---------3--3---3-----------3------------------0------------------1----------|
G|--------------0-------------0--0---0-----------0--0---0-----------0--0---0---|
D|-------------------------0-------0----------2-------2----------2-------2-----|
A|------0-----------------------------------------------------3----------------|
E|---3------------------2------------------0-----------------------------------|
         G (x2)            D/F# (x2)           Em (x2)             C
e|---------3-----------------------------------------------------------------------------------|
B|---------3--3---3-----------3------------------0------------------1--------------1-----------|
G|--------------0-------------0--0---0-----------0--0---0-----------0--0------------0--0---0---|
D|-------------------------0-------0----------2-------2----------2-------2-------2-------2-----|
A|------0-----------------------------------------------------3--------------3-----------------|
E|---3------------------2------------------0---------------------------------------------------|
[Pre-Chorus]
        Em (x2)          D (x2)       Dsus4 (x2)
e|-----------0--------------2--------------3------|
B|-----------0--0-----------3--3-----------3--3---|
G|--------------2--------2-----2--------2-----2---|
D|---2----------------0--------------0------------|
A|---0h2------------------------------------------|
E|---0----0---------------------------------------|
[Chorus]
         G (x2)              D/F# (x2)          Em (x2)               C
e|-----------3------------------2--------------------0----------------------------------------------|
B|-----------3--3---3-----------3--3---3-------------0----------------1------------------1----------|
G|----------------0-------------2----2------------------0---0---------0--0---0-----------0--0---0---|
D|-------------------------------------------2------------2---------2------2-----0h2--2-------2-----|
A|---0h2-------------------------------------0h2------------------3--------------3----3-------------|
E|---3----3---------------2--2---------------0----0-------------------------------------------------|
         G (x2)              D/F# (x2)          Em (x2)               C
e|-----------3------------------2--------------------0----------------------------------------------|
B|-----------3--3---3-----------3--3---3-------------0----------------1------------------1----------|
G|----------------0-------------2----2------------------0---0---------0--0---0-----------0--0---0---|
D|-------------------------------------------2------------2---------2------2-----0h2--2-------2-----|
A|---0h2-------------------------------------0h2------------------3--------------3----3-------------|
E|---3----3---------------2--2---------------0----0-------------------------------------------------|
         G (x2)
e|---------3----------|
B|---------3--3---3---|
G|--------------0-----|
D|--------------------|
A|------0-------------|
E|---3----------------|
(Repeat Verse, Pre-Chorus, and Chorus)
[Bridge]
D*                        Em7*        C*
  Though I try to get you out of my head               Counting on beats of 4
             G*     D*
The truth is I got lost without you                D,2,3,Em7  C,2,3,G  D,2,3,Em7
Em7*      C
And since then I've been waking up to                Final C strummed- DDDDDDDD
[Chorus]
         G (x2)              D/F# (x2)          Em (x2)               C
e|-----------3------------------2--------------------0----------------------------------------------|
B|-----------3--3---3-----------3--3--

Love Someone Like Me chords – Holly Dunn

 [Intro]
 Am
[Verse 1]
 Am
That dancing moon,  is on the water.
                                  E7
Do you feel inclined,  romantically?
        Am
If you do,  I think you ought a,
      G E7 Am
Love someone like me.
[Verse 2]
 Am
Ain’t no place,  you should be goin’.
                            E7
Ain’t no need,  for you to leave.
                Am
It’s a lover’s night,  the stars are showin’,
                  G E7 Am
You need to love someone like me.
[Chorus 1]
         C Am
Someone else,  might try to find you,
        C E7
But my love,  can set you free.
             Am
And if your heart,  has got a mind to,
                G E7 Am
You could love someone like me.
[Solo]
[Verse 3]
 Am
Don’t need luck,  to find good lovin’,
                              E7
And it don’t happen,  magically.
            Am
And baby tonight,  oh, you don’t need nothin’,
         G E7 Am
To love someone like me.
[Chorus 2]
                C Am
If you’ve been thinkin’,  love won’t find you,
            C E7
Well honey wait,  right here and see.
             Am
And if your heart,  has got a mind to,
                G E7 Am
You could love someone like me.
[Tag]
                G E7 Am
You could love someone like me.
                G E7 Am
You could love someone like me.
END

Its A Shame chords – Bruce Springsteen

 It's A Shame
Bruce Springsteen
From the 2010 Album 'The Promise'
Partially recorded in 1977 during the 'Darkness On The Edge Of Town' sessions
[intro]
/    A     /  F#m  /  E  /    A     /   F#m  /  E  /  F#m  /
        A F#m
Well I walk the way you want me to
          A F#m
And I'll talk the way you want me to
          E D E
And I've tried to do all I can just to please you
        A F#m
Well I work hard every day for you
       A F#m
And I brought home all my pay for you
          E D Dm E
And I've cried my tears through the rain night and again
[chorus]
        A E A
And oh whoa girl, it's a shame
    A Dm A
Oh whoa girl, it's a doggone shame
     D A E A
We worked so hard, but it's all in vain
     A E A
Oh whoa girl, it's a shame
 A   /    F#m    /    A    /    F#m A F#m
Now I bought your gold and diamond rings
       A F#m
And I brought you home your pretty things
       E D E
And I thought I'd shown all the love I had for you, yes I did
         A F#m
But as hard as I try it all falls through
           A F#m
Well maybe I was born to be just your fool
           E D Dm E
Trying to satisfy your every desire, each need you require
[chorus]
      A E A
Well oh whoa girl, it's a shame
    A Dm A
Oh whoa girl, it's a doggone shame
    D A E A
I worked so hard, but it's all in vain
     A E A
Oh whoa girl, it's a shame
 A    /    F#m   /    A    /    F#m    /   E     /     D     /   Dm   /  E
[outro]
    A E
Oh whoa girl, it's a shame
     A Dm A
Oh girl, it's a doggone shame
    D A E A
We worked so hard, but it's all in vain
    A E A
Oh whoa girl, it's a shame
    A E A
Oh whoa girl, it's a shame
    A E A
Oh girl, it's a doggone shame
    D A E A
I worked so hard, but it's all in vain
    A E A
Oh whoa, girl it's a shame
[fades out]

Jimi Og Rene – Foedselsdagssangen chords

 Jimi og Rene - Fødselsdagssangen
[Verse 1]
 D A D
Der' en dag,vi særlig godt kan li',
 G E7 A
En som vi husker, det' med garanti.
 D A D
Flag på bordet og gaver i papir
 G A D
Mennesker, der kommer lige forbi og si'r
[Chorus]
 D Em
Hej vi vil sige tillykke til dig.
   A7 D
I dag nåede du et mål på din vej.
 D G
Vi håber helt bestemt at du får,
         D A7 D
Hvad du ønsker dig aller mest i år.
 D Em
Hej vi vil sige tillykke til dig.
    A7 D
En sang får du, om du vil eller ej.
 D G
Vi har en gave, den skal du ha'
         D A7 D
Det er dig, der har fødselsdag i dag.
[Verse 2]
 D A D
Solen skinner, har du været sød,
 G E7 A
får du en pakke, der er hård eller blød.
 D A D
Du er spændt hele dagen, det' da klart.
 G A D
Nu skal du bare ha' det rigtig rart.
[Chorus]
 D Em
Hej vi vil sige tillykke til dig.
   A7 D
I dag nåede du et mål på din vej.
 D G
Vi håber helt bestemt at du får,
         D A7 D
Hvad du ønsker dig aller mest i år.
 D Em
Hej vi vil sige tillykke til dig.
    A7 D
En sang får du, om du vil eller ej.
 D G
Vi har en gave, den skal du ha'
         D A7 D
Det er dig, der har fødselsdag i dag.
Page 5 of 19,638« First...34567...102030...Last »