Category: Chords

Half Of My Heart Chords – John Mayer feat Taylor Swift

Tuning: Standard

If you prefer ( i like it a lot), you can use: 

x13311 instead of Bb
x35533 instead of C
x5356x instead of Dm 

Enjoy.

----------------------------------------------------------------
Bb F C Dm
Bb F C
Bb F C Dm
Bb  

Bb      F           C        Dm     Bb       F  C
  I was born in the arms of imaginary friends

Bb        F            C           Dm          Bb      F  C
  Free to roam, made a home out of everywhere I've been
Bb                      F
Then you come crashing in
         C       Dm
Like the realest thing
Bb                      F                  C
Trying my best to understand all that your love can bring

    Bb         F             C          Dm
Oh, half of my heart's got a grip on the situation
Bb         F           C
Half of my heart takes time
Bb         F               C          Dm
Half of my heart's got the right mind to tell you that
  Bb
I can`t keep loving you
          C     F C Dm Bb
Oh, half of my heart

F C Dm Bb

Bb      F         C               Dm        Bb  F   C
  I was made to believe I'd never love somebody else
Bb         F                C           Dm     Bb    F   C
  I made a plan, stayed the man who can only love himself
Bb                    F
Lonely was the song I sang
         C       Dm
'Til the day you came
Bb                  F                   C
Showing me a better way and all that my love can bring

   Bb         F             C          Dm
Oh, half of my heart's got a grip on the situation
Bb         F           C
Half of my heart takes time
Bb         F               C          Dm
Half of my heart's got the right mind to tell you that
  Bb
I can`t keep loving you
          C     F C Dm Bb               F C Dm Bb
Oh, half of my heart   with half of my heart

     F         Am7
Your faith is strong
          Cm7                Gm
But I can only fall so far so long
        F           Am7
Time to hold, later on
         Cm7                    Gm
You will hate that I never gave more to you
     Bb
than half of my heart
      C
But I can't stop loving you
      Bb
But I can't stop loving you
      C
But I can't stop loving you

                 Bb         F    C Dm
With half of my, half of my heart
    Bb         F    C
Oh, half of my heart
Bb         F             C         Dm
Half of my heart's got a real good imagination
Bb         F           C
Half of my heart's got you
Bb         F             C          Dm
Half of my heart's got a right mind to tell you
     Bb         F           C
That half of my heart won't do

Bb         F          C       Dm           Bb           F         C
Half of my heart is a shotgun wedding to a bride with a paper ring
Bb         F            C         Dm
Half of my heart is the part of a man who's never
Bb          F        C
truly loved anything

    Bb         F    C Dm
Oh, half of my heart
    Bb         F    C
Oh, half of my heart
Bb         F    C Dm
Half of my heart
    Bb         F    C
Oh, half of my heart
Bb         F    C Dm
Half of my heart
    Bb         F    C
Oh, half of my heart
Bb         F    C Dm  .....fading
Half of my heart

Heartbreak Warfare Chords – John Mayer

Standard Tuning

Chords used by John (you can play the full notes, it doesn't matter, but i think it
better this way):
A     x02220
D/F#  2x023x
F#m   2x422x
F     1x3213
C     x32013
G     320033

OBS : To the big E string John uses the tong to hold the note or kill it (x).It's cool,
more pratical.

OBS2: The parts with A : you can switch the freets played in the B string, 0, 2 or 3
usual) and on the G string too, 2 (usual) or 4.

OBS3: The parts with D/F# : you can switch the freets played in the B string, 0, 2 or 3
usual).

Make yourself comfortable to choose the combinations you like, John himself doesn't have
pattern.

-------------------------------------------------------------------------------------
A D/F#
A D/F#

A
Lightning strikes
                           D/F#
Inside my chest to keep me up at night
A
Dream of ways
                         D/F#
To make you understand my pain

A
 Clouds of sulfur in the air
Bombs are falling everywhere
     D/F#
It's heartbreak warfare
A
 Once you want it to begin,
No one really ever wins
   D/F#
In heartbreak warfare

       F#m        A
If you want more love,
               D/F#
why don't you say so?
       F#m        A
If you want more love,
               D/F#
why don't you say so?

A
Drop his name
                         D/F#
Push it in and twist the knife again
A
Watch my face
                       D/F#
As I pretend to feel no pain

A
 Clouds of sulfur in the air
Bombs are falling everywhere
     D/F#
It's heartbreak warfare
A
 Once you want it to begin,
No one really ever wins
   D/F#
In heartbreak warfare

       F#m        A
If you want more love,
               D/F#
why don't you say so?
       F#m        A
If you want more love,
               D/F#
why don't you say so?

     F       C G      (check the time for this passage,G to C, it's
Just say so...         quick comparing the time you stay on F)

F    C G
F    C G
F    C G

F
 How come the only way to know how high you get me
      G
is to see how far I fall
F
 God only knows how much I'd love you if you let me
      G
but I can't break free at all.
         A
It's a heartbreak...

A
 I don't care if we don't sleep at all tonight
           D/F#
Let's just fix this whole thing now
A
 I swear to God we're gonna get it right
       D/F#
If you lay your weapons down
A
 Red wine and ambien
                                D/F#
You're talking shit again, it's heartbreak warfare
A
 Good to know it's all a game
                                D/F#
Disappointment has a name, it's heartbreak warfare

A D/F#  ...

4 Chords Of The Apocalypse Tab by Julian Casablancas

A 2 part guitar solo in the key of F.

Part 1:

s^13--13--13-13-13--------------------------------17p16h17--13p12h13-|
--------------------15--13--15s^17--17-17-17-15----------------------|
---------------------------------------------------------------------|
---------------------------------------------------------------------|
---------------------------------------------------------------------|
---------------------------------------------------------------------|

------------13----------------13-------------------------------------|
-15p14h15------16----------------------------------------------------|
------------------15b16b15p13----15b16b15p13-14-15-16-15b17-17-17-17-|
---------------------------------------------------------------------|
---------------------------------------------------------------------|
---------------------------------------------------------------------|

---------------------------------------------13----17h13--18------17-|
----------------------13----------------13h15--15--------------------|
17-17-----------12h14--------------12h14--------------------19s17----|
----------12h15---------------12h15----------------------------------|
-------15----------------13h15---------------------------------------|
---------------------------------------------------------------------|

-------15------------------------------------------------------------|
---------------------------------------------------------------------|
17s15------15b17--15b17-15-14-14b15-14b15-14--12-14b15-14b15-14-12---|
---------------------------------------------------------------------|
---------------------------------------------------------------------|
---------------------------------------------------------------------|

--------------------------------|
--------------------------------|
14b15~~~~~~~~~~~~~~~~~~~~~~~~~~~|
--------------------------------|
--------------------------------|
--------------------------------|

Part 2:

---------------------------------------------------------------------|
---------------------------------------------18p17h18--15p14h15------|
s17--17-17-17-17--15-13h14-s17-17-17-17-15---------------------------|
---------------------------------------------------------------------|
---------------------------------------------------------------------|
---------------------------------------------------------------------|

------------13----------------13-------------------------------------|
---------------16----------------------------------------------------|
14p13h14----------15b16b15p13----15b16b15p13----12-13-15-13----15-13-|
---------------------------------------------15-------------15-------|
---------------------------------------------------------------------|
---------------------------------------------------------------------|

------------------------------------------13-----17p13--18-----17----|
------------------13------------------------15-----------------------|
------------12h14-------------------14h17-----------------19s17------|
15----12h15--------------------15h17---------------------------------|
---15---------------------15h17--------------------------------------|
---------------------15h17-------------------------------------------|

------15--------------------------------------------------------------|
----------------------------------------------------------------------|
17s15-----14-14-14h15--14s7---s12-10h12-10---9--10b12~~~~~~~~~~~~~~~~-|
----------------------------------------------------------------------|
----------------------------------------------------------------------|
----------------------------------------------------------------------|

Tourist Tab by Julian Casablancas

-----------------------------------------------------------------
Tourist- Julian Casablancas
-----------------------------------------------------------------
Tabbed by: Max Denys
Email: galiqx

Tuning:Standard

Just the intro to this amazing piece, some mistakes i'm sure, but sounds pretty good to me.

(Sorry about the "Hammer-on" parts, don't know if it's written right. I don't
quite understand the tabbing out process yet)

0:06 - 1:04
e|----2-4h5h4h-2----2-2--|-----2-4h5h4h-2----2-2--|-------7h9h7h-5-----5-5-|
B|--2-------------2------|--2--------------2------|-----5-----------7------|
G|-4-------------4-------|-4--------------4-------|-4-6------------6-------|
D|-----------------------|------------------------|------------------------|
A|-----------------------|------------------------|------------------------|
E|-----------------------|------------------------|------------------------|

e|-------7h9h7h-5-----5-5|------------------------|------------------------|
B|-----5-----------7-----|-----5-7h9h7h-5-----5-5-|-----5-7h9h7h-5-----5-5-|
G|-4-6------------6------|-4-6------------4-6-----|-4-6------------4-6-----|
D|-----------------------|------------------------|------------------------|
A|-----------------------|------------------------|------------------------|
E|-----------------------|------------------------|------------------------|

e|-----------------------|
B|-----5h7h5h3-----3-3---|
G|-4-6---------4-6-------|x2
D|-----------------------|
A|-----------------------|
E|-----------------------|   

e|-------2----2----2----2---2~----------------|
B|---0--2-2----0----0----0--2~--7h5h3---------|
G|--2--------4----2----1--------------6h4h2---|__First Ending 0:29-00:34
D|-4----------------------------------------4-|
A|--------------------------------------------|
E|--------------------------------------------|

e|-------2----2----2----2---2~------2~-----|
B|---0--2-2----0----0----0--2~--2---2-~----|
G|--2--------4----2----1-------------------|__Second Ending 0:58-1:04
D|-4---------------------------4-4---------|
A|-----------------------------------------|
E|-----------------------------------------|

That's about it
Amazing Album &
Amazing show Friday Julian!

Im Alive Tab by Kenny Chesney

Okay My first Tab ever... its flawless =) Capo 1st fret drop to D.
i couldnt find any tabs for this so I just did it my self...

e---5------5--6-----6--7-----7--6-----6-|
b---3------3----------------------------|
g---2--2---2----0--------0--------0-----|
d--------0--------0--------0--------0---|
a---------------------------------------|
E---0---------4-----4--5-----5--5-----5-|

Play through the WHOLE song... over and over and over and over again...

OUTRO:

e---------------------------------------------7--|
B---------------------------------------------7--|
G--------9-9h11-11p9--7h9--9/11--11-7--9------7--|
D-----7-------------------------------------7----|
A-\9--------------------------------------9------|
E------------------------------------------------|

The End Have Fun... Email me if you like it mrmotormouth@comcast.net

My Love Is Here Chords – Erik Santos

Intro: A-E/G#-F#m-D-E-;
          A-E/G#-F#m-D-

    A   E/G#           F#m
   Words, nothing but words
     A/E        D
   From me to show
  A/C#          Bm       E       A
   How much my love for you unfolds
            E/G#         F#m
   Through trouble and fears
         A/E           D   A/C#
   This love feels so free
         Bm           E
   And I need you to know

   C#m                D
   Even though we're far apart
           Bm      C#m    E
   You're right beside me in my heart

               Chorus
              D       E      F#m  A
   Don't you know my love is here
              D       E      F#m      E
   Don't you know my love is real (for you)
               Bm      E
   You should know by now
         A  E/G#  D
   This much is true
       Bm       E      A-E/G#-F#m-E-
   My love is here for you

    A   E/G#          F#m
   Time,  nothing but time
       A/E          Bm
   To make up your mind
                  E
   I'll give you all that you need
   A E/G#         F#m
   I want you to know
        A/E       Bm
   I'll never let go
             E
   'Til you come back to me

   C#m                 D
   Even though you're far away
         Bm      C#m     E
   I'm right beside you day by day

   (Repeat Chorus except last line)

       Bm       E-D        A-G-E
   My love is here for you,    oh hoh

   C#m                D
   Even though we're far apart
           Bm       C#m    E
   You're right beside me in my heart

   (Repeat Chorus except last word)

                A-E/G#-D-E-A
            ... you

The First One Chords – Boys Like Girls

Intro: Bm G D A

Verse1:

Bm              G              D
Even though you're gone and far away,
    A
I feel you all around.

Bm              G              D
I think about it every single day,
    A
You got away somehow

Pre-Chorus:

    G
I can't sleep,
    A
It's hard to breath,
Bm            D
And i still feel you next to me,
G           A
Now, i can see.

Chorus:

Bm                G
The first one is the worst one,
            D               A
When it comes to a broken heart,
Bm                     G
Your first love, yeah, you're so young,
           D               A
And you feel like a fallin' star,
           Bm
There's a fire in the city,
            G
That's burnin' out tonight,
           D                        A
You're breathing but you're barely alive,
Bm                G
The first one is the worst one,
         D                  A
When it comes, when it comes to a broken heart.

Verse 2:
Spinnin' like a movie in my head,
I've seen a thousand times,
I've learned to take it hard,
And fall instead
of sittin' safe on the side lines.

Pre-Chorus 2:
Lost days,
Pictures fade,
Somehow, you're still miles away,
It's safe to say,

Chorus 2:
The first one is the worst one,
When it comes to a broken heart,
Your first love, yeah, you're so young,
And you feel like a fallin' star,

There's a fire in the city,
That's burnin' out tonight,
You're breathing but you're barely alive,

The first one is the worst one,
When it comes, when it comes to a broken heart.

Bridge:

G
'Cause I would run through a thunderstorm
     Bm
just to kiss you,
         A
I'm out here on my own,
G                                   Bm
Better now than i was before, but i miss you
       A
and i want you to know.

      G
I can't sleep,
      A
It's hard to breath,
           Bm                D
And i still feel you next to me,
G          D     D
and I can see, yeah

Chorus 3:
The first one is the worst one,
When it comes to a broken heart,
Your first love, yeah, you're so young,
And you feel like a fallin' star,

There's a fire in the city,
That's burnin' out tonight,
You're breathing but you're barely alive,

The first one is the worst one,
When it comes, when it comes to a broken heart.

The first one is the worst one,
When it comes to a broken heart,
Your first love, yeah, you're so young,
And you feel like a fallin' star,

There's a fire in the city,
That's burnin' out tonight,
You're breathing but you're barely alive,

The first one is the worst one,
When it comes, when it comes to a broken heart.

The first one is the worst one,
When it comes, when it comes to a broken heart. 

Hope this helps!! =]

Bubbles Tab by Biffy Clyro

-------------------------------------------------------------------------------
			     Bubbles - Biffy Clyro
-------------------------------------------------------------------------------
Tabbed by: steveprudden
Tuning:Drop D

This is my favourite song off the new album. I really wanted to know how to play
that cool intro and chorus bit so had to work it out for myself. I figured I had
worked out the hard bit so tried to finish the whole song. There are a couple of
bits missing and I know for a fact that some ofthe phrasing is incorrect but I
plan on making corrections as I work it out.

Additional thanks to jamest54.

Intro
Repeat x4
e|---------------------------------------------------------------------------|
B|-----11h13p11--------------------------------------------------------------|
G|--12---------h12-----------------------------------------------------------|
D|---------------------------------------------------------------------------|
A|---------------------------------------------------------------------------|
D|---------------------------------------------------------------------------|

Verse
Repeat x2
e|--11------11-8-6-8---6----8----6----8--10--11--11--------------------------|
B|--8-------8--9-8-9---8----9----8----9--9---9---8---------------------------|
G|--8-------8--8-8-8---8----8----8----8--8---8---8---------------------------|
D|---------------------------------------------------------------------------|
A|---------------------------------------------------------------------------|
D|---------------------------------------------------------------------------|

 On the last repetition play this after
e|--8--10--11--11------------------------------------------------------------|
B|--9--9---9---9-------------------------------------------------------------|
G|--8--8---8---8-------------------------------------------------------------|
D|-------------10------------------------------------------------------------|
A|-------------8-------------------------------------------------------------|
D|---------------------------------------------------------------------------|

Chorus
Repeat x2
e|---------------------------------------------------------------------------|
B|-----11h13p11--------------6h8p6-------------6h8p6------------6h8p6--------|
G|--12---------h12-(x4)----8------h8-(x4)----7------h7-(x4)----8-----h8-(x4)-|
D|---------------------------------------------------------------------------|
A|---------------------------------------------------------------------------|
D|---------------------------------------------------------------------------|

Post Chorus
e|---------------------------------------------------------------------------|
B|---------------------------------------------------------------------------|
G|---------------------------------------------------------------------------|
D|-1--1--1-1--3--3-3--5--5-5--6--6--6-6--1--1--1-1--10--10--10-10--6--6--6-6-|
A|-1--1--1-1--3--3-3--5--5-5--6--6--6-6--1--1--1-1--10--10--10-10--6--6--6-6-|
D|-1--1--1-1--3--3-3--5--5-5--6--6--6-6--1--1--1-1--10--10--10-10--6--6--6-6-|

e|---------------------------------------------------------------------------|
B|---------------------------------------------------------------------------|
G|---------------------------------------------------------------------------|
D|-8--8--8-8--8--8--8-8--10--10--10-10--6--6--6-6--10--10--10-10--1--1--1-1--|
A|-8--8--8-8--8--8--8-8--10--10--10-10--6--6--6-6--10--10--10-10--1--1--1-1--|
D|-8--8--8-8--8--8--8-8--10--10--10-10--6--6--6-6--10--10--10-10--1--1--1-1--|

e|------------------------------------------------------------------------------|
B|------------------------------------------------------------------------------|
G|------------------------------------------------------------------------------|
D|-3--3--3-3--3--3-3--5--5-5--6--6--6-6--6--6--6-6--1---------------------------|
A|-3--3--3-3--3--3-3--5--5-5--6--6--6-6--6--6--6-6--1---------------------------|
D|-3--3--3-3--3--3-3--5--5-5--6--6--6-6--6--6--6-6--1---------------------------|

Outro
Repeat until end
e|------------------------------------------------------------------------------|
B|------3-4-------3-4----------6-4-3----6-4-3-----------------------------------|
G|--3-5------3-5------(x7)----------3--------3----------------------------------|
D|------------------------------------------------------------------------------|
A|------------------------------------------------------------------------------|
D|------------------------------------------------------------------------------|

| /  slide up
| \  slide down
| h  hammer-on
| p  pull-off
| ~  vibrato
| +  harmonic
| x  Mute note
===============================================================================

Born On A Horse Tab by Biffy Clyro

-------------------------------------------------------------------------------
			     Born on a Horse - Biffy Clyro
-------------------------------------------------------------------------------
Tabbed by: Andy
Email: andy_rhcp@hotmail.co.uk

Tuning: Drop D

Clean
e|--------------------------------------------------------------------------|
B|--------------------------------------------------------------------------|
G|--------------------------------------------------------------------------|
D|--------------------------------------------------------------------------|
A|-6-6-6-6-6-6-6-6-6-6-6-6-6-6-6-6/-----------------------------------------|
D|--------------------------------------------------------------------------|

e|--------------------------------------------------------------------------|
B|--------------------------------------------------------------------------|
G|---------------------------------6-6-6-6-6-6-6-6-6-6-6-6------------------|
D|-6-6-6-6-6-6-6-6-6-6-6-6-6-6-6-6------------------------------------------|
A|--------------------------------------------------------------------------|
D|--------------------------------------------------------------------------|

e|--------------------------------------------------------------------------|
B|--------------------------------------------------------------------------|
G|---------------------------------8-8-8-8-8---8----------------------------|
D|-4-4-4-4-4-4-4-4-4-4-4-4-4-4-4-4-6-6-6-6-6-5-6----------------------------|
A|--------------------------------------------------6-6-6-------------------|
D|--------------------------------------------------------------------------|

e|--------------------------------------------------------------------------|
B|--------------------------------------------------------------------------|
G|---8-8-8---------13-13-13---------4-4-4--------11-11-11-----11-11-11------|
D|-6-------6----11----------11----2-------2----9----------9-8----------8----|
A|--------------------------------------------------------------------------|
D|--------------------------------------------------------------------------|

e|--------------------------------------------------------------------------|
B|--------------------------------------------------------------------------|
G|---8-8-8---------13-13-13---------6-6-6--------11-11-11-----11-11-11------|
D|-6-------6----11----------11----4-------4----9----------9-8----------8----|
A|--------------------------------------------------------------------------|
D|--------------------------------------------------------------------------|

Distortion
e|--------------------------------------------------------------------------|
B|--------------------------------------------------------------------------|
G|--------------------------------------------------------------------------|
D|-9-9-9-9-9-9-9-9-9-9-9-6-6-6-6-6-6-6-6-6-6-11-11-14-14-13-13-11-11-13-13--|
A|-9-9-9-9-9-9-9-9-9-9-9-6-6-6-6-6-6-6-6-6-6-11-11-11-11-11-11-11-11-11-11--|
D|-9-9-9-9-9-9-9-9-9-9-9-6-6-6-6-6-6-6-6-6-6-11-11-11-11-11-11-11-11-11-11--|

e|--------------------------------------------------------------------------|
B|--------------------------------------------------------------------------|
G|--------------------------------------------------------------------------|
D|-14-14-14-14-14-16-16-16-16-16--------------------------------------------|
A|-14-14-14-14-14-16-16-16-16-16--------------------------------------------|
D|-14-14-14-14-14-16-16-16-16-16--------------------------------------------|

e|--------------------------------------------------------------------------|
B|--------------------------------------------------------------------------|
G|--------------------------------------------------------------------------|
D|-6-6-6-6-6-11-11-11-11-11-2-2-2-2-2-9-9-8-8-------------------------------|
A|-6-6-6-6-6-11-11-11-11-11-2-2-2-2-2-9-9-8-8-------------------------------|
D|-6-6-6-6-6-11-11-11-11-11-2-2-2-2-2-9-9-8-8-------------------------------|

e|--------------------------------------------------------------------------|
B|--------------------------------------------------------------------------|
G|--------------------------------------------------------------------------|
D|-6-6-6-6-6-11-11-11-11-11-4-4-4-4-4---------------------------------------|
A|-6-6-6-6-6-11-11-11-11-11-4-4-4-4-4---------------------------------------|
D|-6-6-6-6-6-11-11-11-11-11-4-4-4-4-4---------------------------------------|

Clean
e|--------------------------------------------------------------------------|
B|-------------9------------------------------------------------------------|
G|--------------------------------------------------------------------------|
D|-6-6-6-6-4-6--------------------------------------------------------------|
A|--------------------------------------------------------------------------|
D|--------------------------------------------------------------------------|

| /  slide up
| \  slide down
| h  hammer-on
| p  pull-off
| ~  vibrato
| +  harmonic
| x  Mute note
===============================================================================

The Girl Got Hot Tab by Weezer

how i play that one really cool fill; im too lazy to tab out the whole thing but i 
had been dying to learn this fill at least, so here it is.

e|-----------------5----------------------4b---------------------------------|
B|---------------------------------------------------------------------------|
G|----------5--8--------8--5--------4--7-------------------------------------|
D|------/7---------------------7-6-------------------------------------------|
A|---------------------------------------------------------------------------|
E|---------------------------------------------------------------------------|

Dead End Friends Tab by Them Crooked Vultures

Unfinished at the moment, just running through the tracks

Tuning: Standard but album tuning is probably drop-d

Intro:
e|--------------------------------------------|
B|--------------------------------------------|
G|-18-18-18-14-17-17-17-----------------------|
D|-x--x--x--x--x--x--x------------------------|x4
A|-16-16-16-12-15-15-15-9-11-11-11-9-11-11-11-|
E|----------------------7-9--9--9--7-9--9--9--|

Verse:(Different ending for second part but may just be on second guitar)
e|----------------------------------------|
B|----------------------------------------|
G|----------------------------------------|
D|-11--11-9-11--11-9-11--11-9-11-12-12-12-|x2
A|-9---9--7-9---9--7-9---9--7-9--10-10-10-|
E|----------------------------------------|

e|------------------------------|
B|------------------------------|
G|------------------------------|
D|------------------------------|x2
A|-6--6-4-6--6-4-6--6-4-6-7-7-7-|
E|-4--4-2-4--4-2-4--4-2-4-5-5-5-|

Fill Riff:
e|----------------------------|
B|----------------------------|
G|-13--13-9-------------------|
D|----------11--11-9-11-9-----|
A|------------------------11/-|
E|----------------------------|

By The Time Chords – Mika

C                                        Em
Don't wake up, won't wake up, can't wake up, no, don't wake me up
(Repeat)

         C           Em
It's the early morn'
                     Am
Lights flick on
                              Dm                  G     C
Sleepy eyes peek through the blinds at something wrong
          Em
Motionless remains the mess
 Am                               Dm     G
Shame, such a beautiful, beautiful, young life

C                   Em                                    Am
   By the time I'm dreaming, and you've crept out on me sleeping
                  Dm      G        C
I'm busy in the blissful unaware
                  Em                                   Am
By the time I'm dreaming, and you've crept out on me sleeping
                Dm     G            C
Tell me, how am I supposed to care?

Then repeat the 'Don't wake up' bit, and another verse + chorus.

After the second chorus, the bridge starts. Only I couldn't really
figure that one out. I hope someone will. Maybe I will, some day.
If someone else finds it before I do and wants to post it with the
rest of this song, please do. I would not feel offended: I have no
rights to this song, these chords are just what I heard when I tried
it on my guitar; anyone as much a novice as myself could have heard
it, all one needs to do is take the time for it..