Paint Box chords – Pink Floyd Vsion 2

 Song: Paintbox
Artist: Pink Floyd
Richard Wright
Relics
DJ
20th Aug 2016
Promo video at this link:

TUNING: The track is very slightly flat of concert pitch.
To play along use a chromatic tuner, and tune all the
strings down approx. minus 15
Emadd9  = 024000     B       = 799877
Em7/D   = xx0000     A#      = 688766
C       = x32010     A       = 577655
F       = 133211     G#      = 466544
Am      = x02210     G       = 355433
Csus2   = x35533     F#      = 244322
Dsus2   = xx0230     E       = 022100
h = hammer-on      Eaddb9 = 023100
[Bridge riff]
Csus2 Dsus2 
e |--------10----------10-----|--------12----------12-----|
B |-----13----13----13----13--|-----15----15----15----15--|
G |--12----------12-----------|--14----------14-----------|
D |---------------------------|---------------------------|
A |---------------------------|---------------------------|
E |---------------------------|---------------------------|
Dsus2 
e |--------12----------12-----|--------12----------12-----|
B |-----15----15----15----15--|-----15----15----15----15--|
G |--14----------14-----------|--14----------14-----------|
D |---------------------------|---------------------------|
A |---------------------------|---------------------------|
E |---------------------------|---------------------------|
*********************************************************************
[Intro] 
Emadd9 
e |---0--0--------------------------| [x4]
B |---0--0--------------------------|
G |---0--0--------------------------|
D |---4--4--------0-h2--0-h2--0-h2--|
A |---2--2-----2--------------------|
E |---0--0--------------------------|
[Verse 1]
Emadd9 
Last night I had too much to drink,
Em7/D C 
Sitting in a club with so many fools,     playing to rules,
F Am 
Trying to impress, and feeling rather empty,
F G C 
I had a - nother drink, a drink, a drink, a drink, a drink...
Emadd9 
...a drink!
e |---0--0--------------------------| [x4]
B |---0--0--------------------------|
G |---0--0--------------------------|
D |---4--4--------0-h2--0-h2--0-h2--|
A |---2--2-----2--------------------|
E |---0--0--------------------------|
[Verse 2]
Emadd9 
What a way to spend that evening,
Em7/D C 
They all turn up with their friends,    playing their games,
F Am 
They're in the scene, oh, I should have been...
F G C 
Far-------- a - way, away, away, away, away!
[Bridge]
B A# A G# G F# F E 
Getting up, I feel so bad re - member - ing what's been be - fore,
Eaddb9  E   Eaddb9  E  Eaddb9  E Csus2 Dsus2 
I open the door to an empty room,
Dsus2 
Then I for - get-------!
[Break]
Emadd9 
e |--0--0--------------------------| [x4]
B |--0--0--------------------------|
G |--0--0--------------------------|
D |--4--4--------0-h2--0-h2--0-h2--|
A |--2--2-----2--------------------|
E |--0--0--------------------------|
[Verse 3]
Emadd9 
The telephone rings, and someone speaks,
Em7/D C 
She would very much like to go   ...out to a show,
F Am 
So, what can I do?  I can't think what to say,
F G C 
She sees through any - way,