Panacea Tabs – Greyboy

 -------------------------------------------------------------------------------
PANACEA - Greyboy
-------------------------------------------------------------------------------
: emery01
Tuning: Standard
Off Freestylin' (1993). Also featured on the soundtrack for the movie "Get Shorty".
Main bass/guitar line:
e|------------------------------------------------------------|
B|------------------------------------------------------------|
G|------------------------------------------------------------|
D|------------------------------------------------------------| x2
A|----------2----------------2-4-2----------------------------|
E|4-4-2-4-2---2-4--4-4-2-4-2-------4-2------------------------|
e|------------------------------------------------------------|
B|------------------------------------------------------------|
G|------------------------------------------------------------|
D|----------2----------------2-4-2----------------------------| x2
A|4-4-2-4-2---2-4--4-4-2-4-2-------4-2------------------------|
E|------------------------------------------------------------|
Hook:
e|------------------------------------------------------------|
B|------------------------------------------------------------|
G|6/8-4--4------4-------4--4----------------------------------|
D|--------6-4-6---6-4-6-----6-4-------------------------------| x2
A|------------------------------------------------------------|
E|------------------------------------------------------------|
e|------------------------------------------------------------|
B|------------------------------------------------------------|
G|8/11-8--8-6---6-8--8-6---6-8--8-6---------------------------|
D|------------9----------9----------9-------------------------| x2  (you can go down to
A|------------------------------------------------------------|      4th fret on G string 
E|------------------------------------------------------------|      instead of 9th on D)
e|------------------------------------------------------------|
B|--4-5-4-----------------------------------------------------|
G|--------6-4-6-6/8-------4--4--------------------------------|
D|6-----------------6-4-6-----6-4-----------------------------| x2
A|------------------------------------------------------------|
E|------------------------------------------------------------|
The solos are a bit beyond me at the moment, I'll update when I've figured them out
cheers
************************************
| /   slide up
| \   slide down
| h   hammer-on
| p   pull-off
| ~   vibrato
| +   harmonic
| x   Mute note
| b   Bend
| pb  Pre-bend
| br  Bend release
| pbr Pre-bend release
| brb Bend release bend
************************************