Patricio rey y sus redonditos de ricota – La pequena novia del carioca Tabs 1

INTRO:
GUITARRA:
e|-------------------------------------|
B|-------------------------------------|
G|-------------------------------------|X2
D|---------------(4)-------------------|
A|-(6)-----(4)------------(6)-(4)----4-|
E|-------------------------------------|
     
BAJO:
G|-------------------------------------|----------------|------------|---------------|
D|---------------(4)-------------------|----------------|------------|-4-(4)---------|
A|-6(6)----(4)------------(6)-(4)---(4)|(6)---6-6---(6)-|--4-4---(4)-|-------(6)-(4)-|
E|-------------------------------------|----6-----6-----|------4-----|---------------|
        

VERSO 1:
GUITARRA:
|-----------------------------------------------------------|
|-----------------------------------------------------------|
|-----------------------------------------------------------|
|--------------------------------------(4)------------------|
|-(6)----------------(4)----------------------------(6)-(4)-|
|-----------------------------------------------------------|
      Un dia despues     despues de vos    cruce los dedos
  
|------------------------------------------------------------|
|------------------------------------------------------------|
|------------------------------------------------------------|
|----------------------------------------(4)-----------------|
|-(4)-(6)--------------(4)---------------------------(6)-(4)-|
|------------------------------------------------------------|
         La barca paso     y el rio quedo    al fin quieto

BAJO:
G|-------------------------------------|----------------|------------|---------------|
D|---------------(4)-------------------|----------------|------------|-4-(4)---------|
A|-6(6)----(4)------------(6)-(4)---(4)|(6)---6-6---(6)-|--4-4---(4)-|-------(6)-(4)-|
E|-------------------------------------|----6-----6-----|------4-----|---------------|
        

PRE_ESTRIBILLO 1:
GUITARRA 1:
           [FA#- DO# -FA#-DO#]
      
GUITARRA 2: (con slide)
   FA#      DO#
E|-------|------------------6-------------(9)-|------------------------|
B|-------|-7/6-(4)-------/7---7/-12/11--9-----|--6h7--6----------------|
G|-------|------------------------------------|---------8p6---6h(8)~---|
D|-------|------------------------------------|-------------8----------|
A|-------|---------(4)~-----------------------|------------------------|
E|-------|------------------------------------|------------------------|
        
BAJO: FA#        DO#       FA#        DO#
G|-----------|--------|-------------|-------|--------------------------|
D|-----------|--------|-------------|-------|--------------------------|
A|-----------|--------|-------------|-------|--------------------(6)---|
E|-2-(2)--2/-|-9-(9)--|9/-2-(2)--2/-|-9-(9)-|--------------------------|


VERSO 2 : (igual)

   Solo un tiempo fue
   que ayudo a pasar
   un buen rato

   Un castillo de
   naipes que cayó
   y palabras baratas.


ESTRIBILLO 1:
GUITARRA 1:
          Sib             FA#      LAm                     FA
E|-------6---------6--|-------2-|-------5--|-----|-------|-----1--|
B|-------6---------6--|-------2-|-------5--|-----|-------|-----1--|
G|--------------------|---------|----------|-Sib-|--FA#--|--------|X2
D|--8-8------8-8------|--4-4----|--7-7-----|-----|-------|-3-3----|
A|--8-8------8-8------|--4-4----|--7-7-----|-----|-------|-3-3----|
E|--6-6------6-6------|--2-2----|--5-5-----|-----|-------|-1-1----|

BAJO:
G|--------------------|---------|--------|-------|---------|---------|
D|--------------------|---------|--------|--Sib--|---------|---------|X2
A|--------------------|---------|--------|-------|---------|---------|
E|--6-6--6-5-6-6--6-5-|-2-2--2--|-5-5-5--|-------|-2--2-2--|-1-1--1--|


SIb
      en el aire entre los dos

   Fa#             LAm                     
       brillo una copa rota
  
  SIb
       mala suerte mi palma dio

   Fa#             Fa
       destino
(Visited 1 times, 1 visits today)

Comments are closed.