Polybridge – Track 3 intro Tabs – Misc Computer Games

 -------------------------------------------------------------------------------
                          Track 3 - Polybridge Soundtrack
-------------------------------------------------------------------------------
: Elliot Kempson
 elliotk25

Tuning:EADGBe

e|---------------------------------------------------------------------------|
B|---------------------------12---12h14-------------14-----------------------|
G|--------------9---13---11----------------------13-14---14--13--------------|
D|--------------9--------13-------------14----------14-----------------------|
A|---------9h11----------14-------------14--16-------------------------------|
E|-12--12--------------------------------------------------------------------|


NOTE: I do not own Polybridge or the song, I'm just a fan :)
I don't own the video either, but here it is: https://youtu.be/f4-pitkxPLw
************************************

| /   slide up
| \   slide down
| h   hammer-on
| p   pull-off
| ~   vibrato
| +   harmonic
| x   Mute note
| b   Bend
| pb  Pre-bend
| br  Bend release
| pbr Pre-bend release
| brb Bend release bend

************************************
(Visited 1 times, 1 visits today)

Comments are closed.