Private Number chords – Beverley Knight

 Song: Private number
Artist: Beverley Knight (Feat. Jamie Cullum)
Booker T. Jones and William Bell 
Soulsville
DJ
14th Aug 2016
CAPO: 2nd fret (Sounds in the key of E)
Chord names and fret positions are relative to the capo:
Bm     = x24432     A/D    = xx0655     C        = x32010
Asus2  = x02200     G/D    = xx0433     Gmaj7/A  = x00032
A      = x02200     D4     = xx0233     Dmaj7    = xx0222
A4     = x02230     E7     = 022130     G6       = 320030
G      = 320003     A7/G   = 302020     Em7      = 022030
D      = xx0232     F#m    = 244222     A7sus4   = x02030
F#m/A  = x0xxxx     D5       = xx0235
Gmaj7    = 320002
h = Hammer-on   p = Pull-off
N.B. Lyrics in brackets are sung by Jamie Cullum.
**********************************************************************
[Intro]
Bm Asus2 A A4 A G 
e |----------|-----2---0------------|--3----3-----------|
B |----------|-----3---0-h2--h3-p2--|--0----0-----------|
G |----------|-----4---2------------|--0----0-----------|
D |----------|-----4---2------------|--0--0-------------|
A |----0--1--|--2------0------------|--2----------0--1--|
E |--3-------|----------------------|--3--------3-------|
Bm Asus2 A A4 A G 
e |-----2---0-------------|--3---------------------|
B |-----3---0--h2--h3-p2--|--0---------------------|
G |-----4---2-------------|--0---------------------|
D |-----4---2-------------|--0---------0-------0---|
A |--2------0-------------|--2----2-h4----2-h4-----|
E |-----------------------|--3---------------------|
[Verse 1]
D A/D G/D D D4 D A/D G/D 
(Since I've been gone you've had your num - ber changed!)
D A/D G/D D D4 D A/D G/D 
But my love for you, boy, still re - mains the same!
G E7 A A7/G 
(Now, I've been loving you...)
F#m F#m/A Bm 
And you've been lov - ing   me...
C Gmaj7/A   
(...For so long, baby, what's wrong-----------------?)
So, I'm asking...
[Chorus]
D Dmaj7 G6 Em7 A7sus4 D D D4 D5 D4 
...Baby, baby, baby, please, let me have your number!
(Baby, baby, baby!)
D Dmaj7 G6 Em7 A7sus4 D 
(Baby, baby, baby, please, let me have your number! Yeah!)
Baby, baby, baby!
[Verse 2]
D A/D G/D D 
I'm sorry you couldn't call me when you got home, 
A/D G/D D A/D G/D 
(Woo -hoo, hoo -oo!)      But, other fellahs kept on calling,
D D4 D A/D G/D 
While you were gone,            well...
G E7 A A7/G 
So, I had the number changed,
F#m F#m/A Bm 
(Girl, I'm not act - ing strange!)
C Gmaj7/A 
Welcome home, ...nothing is wrong------! So, I'm saying...
(Nothing is wrong------! Hoh-------!)