Racehorse Get Married Tabs by Jordaan Mason And The Horse Museum

 Just one progression all the way through, strum the open chord shapes in the lulls 
(listen to the song for changes in the dynamics). Capo 3rd fret.


E||--------------------|---------------------|
B||--------0--------0--|--------0---------0--|
G||--------------------|---------------------|
D||----2--------2------|----2---------2------|
A||--3---3----3---3----|--3---3-----3---3----|
E||--------------------|---------------------|

E||--------------------|---------------------|
B||--------0--------0--|--------0---------0--|
G||--------------------|---------------------|
D||----4--------4------|----4---------4------|
A||--5--5-----5---5----|--5---5-----5---5----|
E||--------------------|---------------------|
(Visited 1 times, 1 visits today)

Comments are closed.