Raising Hell Tabs by Bullet For My Valentine V2

 : Connor Ford

  Bullet for My Valentine
Song:  Raising Hell
 ? (2013)


Tuning: D Tuning (D, G, C, F, A, D)
(Tune all string down one whole step)



Please rate, comment, correct, anything that will help :)


Hammer on:        h
Pull off:         p
Slide up:         /
Slide down:       \
Bend up:          BU(?)
Tapped note:      T
Vibrato:          ~~~
Pinch Harmonic:   PH
Natural Harmonic: NH
After Muting:     M
Pick slide:       X\\\ ('\' indicated duration)
Dive Bomb:        DB

‘/’ before DB indicates a raise into the dive bomb
‘\’ after DB indicates a lower of the Floyd rose bar

Guitar 1:        Matt Tuck
Guitar 2:        Michael Padge
Guitar 3:        Michael Padge (Additional harmonies)


________________________________________________________________________________



Intro
Guitar 1
|---------------------------------|---------------------------------|
|---------------------------------|---------------------------------|
|---------------------------------|---------------------------------|
|-2-------------------------------|-3-------------------------------|
|-2-------------------------------|-1-----------------------1-111-1-|
|-0-------------------------------|-------------------------1-111-1-|
|
|Guitar 2
|---------------------------------|---------------------------------|
|---------------------------------|---------------------------------|
|-4NH-DB\\\\\---------------------|---------------------------------|
|---------------------------------|---------------------------------|
|---------------------------------|-7NH-DB\\\\\---------------------|
|---------------------------------|---------------------------------|

Guitar 1
|---------------------------------|---------------------------------|
|---------------------------------|---------------------------------|
|---------------------------------|---------------------------------|
|-2-------------------------------|-3---------------5---------------|
|-2-------------------------------|-1---------------3---------------|
|-0-------------------------------|---------------------------------|
|
|Guitar 2
|---------------------------------|---------------------------------|
|---------------------------------|---------------------------------|
|-5NH-////DB------5\/5\/5\(5\\\---|-5NH-DB\\\\\---------------------|
|---------------------------------|---------------------------------|
|---------------------------------|---------------------------------|
|---------------------------------|---------------------------------|


________________________________________________________________________________


Pre-verse 1
Guitar 1
||-----------------------------------------------------------------||
|o-----------------------------------------------------------------o|
||-----------------------------------------------------------------||
||-----------------------------------------------------------------||
|o-----------------------------------------------------------------o|
||-6p0-0-0-0-0-0-0-6p0-0-0-0-0-0-0-6p0-0-0-0-0-0-0-6p0-5p0-3p0-5p0-||
|
|Guitar 2
||-----------------------------------------------------------------||
|o-----------------------------------------------------------------o|
||-----------------------------------------------------------------||
||-2---------------------------------------------------------------||
|o-2---------------------------------------------------------------o|
||-0---------------------------------------------------------------||

Both guitars
|-----------------------------------------------------------------|
|-----------------------------------------------------------------|
|-----------------------------------------------------------------|
|-----------------------------------------------------------------|
|-----------------------------------------------------------------|
|-6p0-0-0-0-0-0-0-6p0-0-0-0-0-0-0-6p0-0-
(Visited 1 times, 1 visits today)

Comments are closed.