Rango Tabs – Catfish And The Bottlemen Vsion 2

 CAPO ON 6/CAPO ON 7 FOR SINGLE VERSION
Lead
Intro
e|---------------------------------------------------------------------------|
B|---8-8-8-8-8-8-8-8--7-7-----12--12--12--12--12--12-------------------------|
G|--9-9-9-9-9-9-9-9-9--7----12--12--12--12--12--12--11-----------------------| x2
D|---------------------------------------------------------------------------|
A|---------------------------------------------------------------------------|
E|---------------------------------------------------------------------------|
Rhythm
Intro + Verse 1 & 2 + Outro
e|--0-0-0-0-0-0-0-0-0-0-0-0-0--0-0-0--0-0-0-0-0-0-0-0-0-0-0-0-0--3-3-3-------|
B|--1-1-1-1-1-1-1-1-1-1-1-1-1--1-1-1--1-1-1-1-1-1-1-1-1-1-1-1-1--0-0-0-------|
G|--2-2-2-2-2-2-2-2-2-2-2-2-2--2-2-2--0-0-0-0-0-0-0-0-0-0-0-0-0--0-0-0-------|
D|--2-2-2-2-2-2-2-2-2-2-2-2-2--3-3-3--2-2-2-2-2-2-2-2-2-2-2-2-2--0-0-0-------|
A|--0-0-0-0-0-0-0-0-0-0-0-0-0--3-3-3--3-3-3-3-3-3-3-3-3-3-3-3-3--2-2-2-------|
E|--0-0-0-0-0-0-0-0-0-0-0-0-0--0-0-0--0-0-0-0-0-0-0-0-0-0-0-0-0--3-3-3-------|
Lead
Verse 1 & 2:
e|---------------------------------------------------------------------------|
B|---------------------------------------------------------------------------|
G|---------------------------------------------------------------------------|x4
D|--5-5--5-5-5--5-5-5--5-5--5-5---2-2--2-2-2--2-2-2--2-2--2-2----------------|
A|--7-7--7-7-7--7-7-7--7-7--7-7---0-0--0-0-0--0-0-0--0-0--3-3----------------|
E|--0-0--0-0-0--0-0-0--0-0--7-7---3-3--3-3-3--3-3-3--3-3--3-3----------------|
Rhythm
Chorus 1:
e|--0--0--0----0--0--0-------------------------------------------------------|
B|--1--3--1----1--3--1-------------------------------------------------------|
G|--2--4--0----2--4--0-------------------------------------------------------|
D|--3--5--2----3--5--2-------------------------------------------------------|x2
A|--3--5--0----3--5--3-------------------------------------------------------|
E|---------------------------------------------------------------------------|
Lead
Chorus 1:
e|---------------------------------------------------------------------------|
B|---------------------------------------------------------------------------|
G|--2--4--0----2--4--0-------------------------------------------------------|x2
D|--3--5--5----3--5--2-------------------------------------------------------|
A|--3--5--7----3--5--3-------------------------------------------------------|
E|--0--0--0----0--0--3-------------------------------------------------------|
Rhythm
Chorus 2 & 3:
e|--0-0-0-0-0-0-0-0-0-0-0-0-0----0-0-0-0-0-0-0-0-0-0-0-0---------------------|
B|--1-1-1-3-3-3-1-1-1-1-1-1-1----1-1-1-3-3-3-1-1-1-1-1-1---------------------|
G|--2-2-2-4-4-4-0-0-0-0-0-0-0----2-2-2-4-4-4-0-0-0-0-0-0---------------------|x2
D|--3-3-3-5-5-5-2-2-2-2-2-2-2----3-3-3-5-5-5-2-2-2-2-2-2---------------------|
A|--3-3-3-5-5-5-0-0-0-0-0-0-0----3-3-3-5-5-5-3-3-3-3-3-3---------------------|
E|--0-0-0-0-0-0-0-0-0-0-0-0-0----0-0-0-0-0-0-0-0-0-0-0-0---------------------|
e|--0-0-0-0-0-0-0-0-0-0-0-0-0----0-0-0-0-0-0-0-0-0-0-0-0---------------------|
B|--1-1-1-3-3-3-1-1-1-1-1-1-1----1-1-1-3-3-3-1-1-1-1-1-1---------------------|
G|--2-2-2-4-4-4-2-2-2-2-2-2-2----2-2-2-4-4-4-0-0-0-0-0-0---------------------|x2
D|--3-3-3-5-5-5-2-2-2-2-2-2-2----3-3-3-5-5-5-2-2-2-2-2-2---------------------|
A|--3-3-3-5-5-5-0-0-0-0-0-0-0----3-3-3-5-5-5-3-3-3-3-3-3---------------------|
E|--0-0-0-0-0-0-0-0-0-0-0-0-0----0-0-0-0-0-0-0-0-0-0-0-0---------------------|
Lead
Chorus 2 & 3:
e|---------------------------------------------------------------------------|
B|--1-1-1-3-3-3-0-0-0-0-0-0-0--1-1-1-3-3-3-0-0-0-0-0-0-0---------------------|
G|--0-0-0-0-0-0-0-0-0-0-0-0-0--0-0-0-0-0-0-2-2-2-2-2-2-2---------------------|x2
D|--0-0-0-0-0-0-2-2-2-2-2-2-2--0-0-0-0-0-0-0-0-0-0-0-0-0---------------------|
A|--3-3-3-5-5-5-2-2-2-2-2-2-2--3-3-3-5-5-5-3-3-3-3-3-3-3---------------------|
E|---------------------------------------------------------------------------|