Reaching For You solo Tabs – Hillsongs Vsion 3

 Artist: Hillsongs
Song: Reaching For You
Part of the song: Solo
Again couldn't find any correct versions online, so I decided to tab it myself.
e|------------------------------------------------------------------------------------------|
B|-------------------------8-8-8------------------------------------------------------------|
G|-----------7s9-5-----7s9------9p7-5-7s9--p7p5-4b5b4-4-------------------------------------|
D|-----5-7-5--------------------------------------------5---5-7-----------5-----------------|
A|-5h7----------------------------------------------------7-----7p5-3-5s7---7p5-3---3-------|
E|--------------------------------------------------------------------------------5---5-3-5-|
e|------------------------------------------------------------------------------|
B|-----------------10-------10-12-13--12-12-10h12h10s8-------14--12-------------|
G|---------9-10-12----10-12----------------------------12s14-14---------------|
D|-9-10-12-----------------------------------------------------------14h12h10-|
A|------------------------------------------------------------------------------|
E|------------------------------------------------------------------------------|
e|------------------------15----------15----------------------------15----15---------------------------------|
B|------------13-15s17-17----17-17-17----17-17-17h18h17-15-13-15b17----17----17b15-13-15b17-13-15--13-15b17s0|
G|-------12-14-----------------------------------------------------------------------------------14----------|
D|-12s14-----------------------------------------------------------------------------------------------------|
A|-----------------------------------------------------------------------------------------------------------|
E|-----------------------------------------------------------------------------------------------------------|
e|---------------10-12-13-12-10-------------------------------|
B|------------10----------------13-12b13b12-12h13h12----------|
G|---------10----------------------------------------12---s12-|
D|------12----------------------------------------------------|
A|-5s12-------------------------------------------------------|
E|------------------------------------------------------------|
e|-12-12-12-12----------------------------------15----------------|
B|-12-12-12-12--15-15-15-15--13-13-13-13--15b17----15b17-13h15h13-|
G|--------------14-14-14-14--12-12-12-12--------------------------|
D|----------------------------------------------------------------|
A|----------------------------------------------------------------|
E|----------------------------------------------------------------|
************************************
| h  Hammer-on
| p  Pull-off
| b  Bend
| s  slide
************************************