Rikard Nordraak – Ja vi elsker chords

Her er s***ten på alle tulle versjoner! Dette er ja vi elsker på den riktige måten!

E|-0-----0---0----0----|---------------------|-0-----2---0--
B|-5-----3---2----0----|------0----2----3----|-2-----3---0--
G|---------------------|-2----1----2----2----|-----------1--
D|---------------------|----------------0----|-------0------
A|-7-----5---4----2----|-0---------0---------|-0------------
E|---------------------|------0--------------|-----------0--

E|--0----|--------|-2-----0-------------|
B|--3----|-2------|-----------3----2----|
G|--1----|-2------|-3-------------------|
D|-------|--------|---------------------|
A|-------|-0------|---------------------|
E|-------|--------|-2-------------------|

E|----------------0----|-0-----2---2----4----|-5------|-5---
B|-0----2----3---------|-2---------3---------|-2------|-2---
G|---------------------|---------------------|-2------|-2---
D|---------------------|---------------------|-2------|-----
A|-2---------2---------|-0---------2---------|-0------|-----
E|------2---------4----|---------------------|--------|-2---

E|--5---4----4----------|
B|------5----5--7----7--|
G|--------------7----7--|
D|--------------0-------|
A|------4---------------|
E|----------------------|

E|-------------|-2-----2---0---------|----------------0---0-
B|-5-----------|----------------2----|-3--------------------
G|-6-----6-----|-2-------------------|-4--------------------
D|-------7-----|---------------------|-4--------------------
A|-0-----------|---------------------|-2----0---------------
E|-------------|-2-------------------|-----------4----0-----

E|--|-0----2----2----4----|
B|--|-2----2----3----3----|
G|--|---------------------|
D|--|---------------------|
A|--|-0---------2---------|
E|--|---------------------|

E|-4-----5-----|-5-----5---4----5----|-7------7---7---|-7---
B|-5-----5-----|-7-----7---5----5----|----------------|-----
G|-------------|---------------------|-7--------------|-7---
D|-------4-----|-0-------------------|----------------|-----
A|-4-----------|----------------4----|--------5-------|-----
E|-------------|---------------------|-7--------------|-7---

E|-9----10---9----|-7-----5----4---2---|
B|----------------|-------5----3---3---|
G|-9----7----9----|-7------------------|
D|----------------|--------------------|
A|----------------|-5-----4----2-------|
E|-9----7----9----|--------------------|

E|-0-----2---2----4----|-5------|-5-----5---4----4----------
B|-2-----2---3----3----|-2------|-2---------5----5--7----7--
G|----------------4----|-2------|-2-----------------7----7--
D|----------------2----|-2------|-------------------0-------
A|-0---------2---------|-0------|-----------4---------------
E|---------------------|--------|-2-------------------------

E||-------------|-2-----2---0---------|
B||-5-----------|----------------2----|
G||-6-----6-----|-2-------------------|
D||-------7-----|---------------------|
A||-0-----------|---------------------|
E||-------------|-2-------------------|

E|----------------0----0--|-0----2----2----4----|-4-----5---
B|-3----------------------|-2----2----3----3----|-5-----5---
G|-4----------------------|---------------------|-----------
D|-4----------------------|---------------------|-------4---
A|-2----0-----------------|-0---------2---------|-4---------
E|-----------4----0-------|---------------------|-----------

E|--|-5-----5---4----5----|
B|--|-7-----7---5----5----|
G|--|---------------------|
D|--|-0-------------------|
A|--|----------------4----|
E|--|---------------------|

E|-7------7---7---|-7----9----10---9----|-7-----5----4---2--
B|----------------|---------------------|-------5----3---3--
G|-7--------------|-7----9----7----9----|-7-----------------
D|----------------|---------------------|-------------------
A|--------5-------|---------------------|-5-----4----2------
E|-7--------------|-7----9----7----9----|-------------------
chords gitarakkorder

Tue, 11 Sep 2012 14:13:46 +0000 Rikard Nordraak - Ja, vi elsker chords gitarakkorder

Rikard Nordraak/Bjørnstjerne Bjørnson - "Ja, vi elsker"
Transcribed by Bjørn T. Dahl

Chords: Cm, Dm, Eb, F, F7, G, G7, Gm, Bb

(-) Bb F Bb Eb
Ja, vi elsker dette landet
Bb F7 Bb
som det stiger frem,
(-) Cm G Cm F7
furet, værbitt o - ver vannet,
Bb Eb F7 Bb
med de tu - sen hjem,
Gm Dm Gm Dm Gm
elsker, elsker det og tenker
Eb G7 Cm
på vår far og mor
F Bb Cm Dm Bb
og den saganatt som senker
Eb F Bb Cm
drømme på vår jord,
F Bb F7 Bb Cm Gm
og den saga - natt som senker
Dm Eb Bb Eb F7 Bb
senker drømme på vår jord.

Teksten som brukes i dag:

Ja, vi elsker dette landet,
som det stiger frem,
furet, værbitt over vannet,
med de tusen hjem.
Elsker, elsker det og tenker
på vår far og mor
og den saganatt som senker
drømmer på vår jord.

Dette landet Harald berget
med sin kjemperad,
dette landet Håkon verget
medens Øyvind kvad;
Olav på det landet malte
korset med sitt blod,
fra dets høye Sverre talte
Roma midt imot.

Bønder sine økser brynte
hvor en hær drog frem;
Tordenskjold langs kysten lynte,
så den lystes hjem.
Kvinner selv stod opp og strede
som de vare menn;
andre kunne bare grede,
men det kom igjen!

Visstnok var vi ikke mange,
men vi strakk dog til,
da vi prøvdes noen gange,
og det stod på spill;
ti vi heller landet brente
enn det kom til fall;
husker bare hva som hendte
ned på Fredrikshald!

Hårde tider har vi døyet,
ble til sist forstøtt;
men i verste nød blåøyet
frihet ble oss født.
Det gav faderkraft å bære
hungersnød og krig,
det gav døden selv sin ære

Comments are closed.