Roary The Racing Car Theme intro Tabs – Misc Television

 -------------------------------------------------------------------------------
                             Roary The Racing Car Theme
-------------------------------------------------------------------------------
: Daniel Bis
 danbis1999

Tuning: Standard

E|--------------------------------------------------------
B|--10-------------------------------10-------------------
G|------9--9--9--9--7--------------------9--9--9--9--7----
D|---------------------7--------------------------------7-
A|--------------------------------------------------------
E|--------------------------------------------------------
 ♫ Roar-y The Ra-c-ing Car         Roar-y My num-ber one star ♫

E|---------------------------------------------------------
B|---------------------------------------------------------
G|-7--7--7--7-----9--9--9--9-----7--7--7--7-----9--9--9--9-
D|---------------------------------------------------------
A|---------------------------------------------------------
E|---------------------------------------------------------
 ♫ He's comin' to the line      Watch out Roary!
               Lookin Real fine               They're right behind ya!
                                                                     Come on! ♫
-Repeat-


Yeah that's about it :)
Best to listen to the theme on YouTube as well
Message me if needs changes
Thanks
(Visited 1 times, 1 visits today)

Comments are closed.