Roller Coaster intro Tabs – Luke Bryan Vsion 1

 -------------------------------------------------------------------------------
ROLLER COASTER - Luke Bryan
-------------------------------------------------------------------------------
: Zack Ouellette
zack_ouellette@icloud.com
Tuning: Standard
This is how the recording sounds like
e|-------6------------6------------6------------6----------------------------|
B|---9-----9------9-----9------9-----9------9-----9--------------------------|
G|-8---8--------8---8--------8---8--------8---8------------------------------|
D|---------------------------------------------------------------------------|
A|---------------------------------------------------------------------------|
E|---------------------------------------------------------------------------|
I play it like this 
e|-------6------------6------------6------------6----------------------------|
B|---9-----9------9-----8------9-----9------9-----9--------------------------|
G|-8---8--------8---8--------8---8--------8---8------------------------------|
D|---------------------------------------------------------------------------|
A|---------------------------------------------------------------------------|
E|---------------------------------------------------------------------------|
************************************
| /   slide up
| \   slide down
| h   hammer-on
| p   pull-off
| ~   vibrato
| +   harmonic
| x   Mute note
| b   Bend
| pb  Pre-bend
| br  Bend release
| pbr Pre-bend release
| brb Bend release bend
************************************