Run My World Tabs – Antiseen

 Intro           x4
E-----------------|
B-----------------|
G-2-3-4-4-4-4-4-4-|
D-2-3-4-4-4-4-4-4-|
A-0-1-2-2-2-2-2-2-|
E-----------------|


Verse           x4                x4                x4
E-----------------|-----------------|-----------------|
B-----------------|-----------------|-----------------|
G-2-3-4-4-4-4-4-4-|-7-8-9-9-9-9-9-9-|-2-3-4-4-4-4-4-4-|
D-2-3-4-4-4-4-4-4-|-7-8-9-9-9-9-9-9-|-2-3-4-4-4-4-4-4-|
A-0-1-2-2-2-2-2-2-|-5-6-7-7-7-7-7-7-|-0-1-2-2-2-2-2-2-|
E-----------------|-----------------|-----------------|


Chorus
E----------------------------------------------------|
B----------------------------------------------------|
G-2-3-4------------2-3-4------------2-3-4------------|
D-2-3-4------------2-3-4------------2-3-4------------|
A-0-1-2------------0-1-2------------0-1-2------------|
E----------------------------------------------------|


Outro           x5
E-----------------|---------------------------------|
B-----------------|---------------------------------|
G-2-3-4-4-4-4-4-4-|-2-3-4-2-3-4-2-3-4-2-3-4---4-----|
D-2-3-4-4-4-4-4-4-|-2-3-4-2-3-4-2-3-4-2-3-4---4-----|
A-0-1-2-2-2-2-2-2-|-0-1-2-0-1-2-0-1-2-0-1-2---2-----|
E-----------------|---------------------------------|


Order:
Intro
Verse
Chorus
Verse
Chorus
Outro