Sad Angel Tabs by Fleetwood Mac

 -------------------------------------------------------------------------------
                             SAD ANGEL (live) - Fleetwood Mac
-------------------------------------------------------------------------------
: Sauter_Do
 ---

Tuning: Standard


This is an approach to the live-version they played on the REUNION TOUR 2013.

The intro is separated into eighth notes and is a real rhythmic thing.
The first seven notes are played palm muted, the last one is accented and played as a 
full down stroke.
Notice also the timing between the notes, it goes like this:
"Bam Bam BamBam Bam BamBamBaaaaam"
"Bam Bam BamBam Bam BamBaBaaaaam"




I N T R O

      F#      F#     F#       F#            F#   F#      F#      F#      F#
e|--------------------------------------------------------------------------------|
B|--------------------------------------------------------------------------------|
G|----11---11-11-11---11---11-11-11---------11---11---11-11-11---11---11-11-11----|
D|----11---11-11-11---11---11-11-11---------11---11---11-11-11---11---11-11-11----|
A|-----9----9--9--9----9----9--9--9----------9----9----9--9--9----9----9--9--9----|
E|--------------------------------------------------------------------------------|

      F#      F#       F#     F#            B#   B#   B#     B#    B#
e|--------------------------------------------------------------------------------|
B|--------------------------------------------------------------------------------|
G|----11---11-11-11---11---11-11-11--------- 8---8---8-8-8---8---8-8-8------------|
D|----11---11-11-11---11---11-11-11----------8---8---8-8-8---8---8-8-8------------|
A|-----9----9--9--9----9----9--9--9----------6---6---6-6-6---6---6-6-6------------|
E|--------------------------------------------------------------------------------|




V E R S E


"My eyes, were consumed..."

      F#      F#      F#      F#            F#   F#      F#      F#      F#
e|--------------------------------------------------------------------------------|
B|--------------------------------------------------------------------------------|
G|----11---11-11-11---11---11-11-11---------11---11---11-11-11---11---11-11-11----|
D|----11---11-11-11---11---11-11-11---------11---11---11-11-11---11---11-11-11----|
A|-----9----9--9--9----9----9--9--9----------9----9----9--9--9----9----9--9--9----|
E|--------------------------------------------------------------------------------|

      F#      F#      F#      F#             B#   B#   B#     B#    B#
e|--------------------------------------------------------------------------------|
B|--------------------------------------------------------------------------------|
G|----11---11-11-11---11---11-11-11----------8---8---8-8-8---8---8-8-8------------|
D|----11---11-11-11---11---11-11-11----------8---8---8-8-8---8---8-8-8------------|
A|-----9----9--9--9----9----9--9--9----------6---6---6-6-6---6---6-6-6------------|
E|--------------------------------------------------------------------------------|


"Your dreams would not wake...."


      F#      F#     F#       F#            F#   F#      F#      F#      F#
e|--------------------------------------------------------------------------------|
B|--------------------------------------------------------------------------------|
G|----11---11-11-11---11---11-11-11---------11---11---11-11-11---11---11-11-11----|
D|----11---11-11-11---11---11-11-11---------11---11---11-11-11---11---11-11-11----|
A|-----9----9--9--9----9----9--9--9----------9----9----9--9--9----9----9--9--9----|
E|--------------------------------------------------------------------------------|

      F#      F#       F#     F#            B#   B#   B#     B#    B#
e|--------------------------------------------------------------------------------|
B|--------------------------------------------------------------------------------|
G|----11---11-11-11---11---
(Visited 1 times, 1 visits today)

Comments are closed.