Santana – Black Magic Woman Tabs 54

3.---12/10----7/9/7----10/12/10--12---7/9/7
1.------------------------------------------------------------------10-
2.--10------------------------10----------------------------------10---
3.-----12--10/9--12--10--9/7------12--10/9--12--10--9-----------10-----
4.---------------------------------------------------------------------
5.----------------------------------------------------12---12----------
6.-------------------------------------------------------12------------
1.---10----10----------------------------10------------------------
2.------13----13--10-13b15b13--10--13b14----13--10-----------------
3.-------------------------------------------------12b14b12---10-9-
1.--------12--13--12---------------------------10------------------
2.--10-13------------13b15b13b15b13--10--13b14---13-10-------------
3.-----------------------------------------------------12b13-12-10-
1.-----10--12--13--13/15--15b17b15--13---13--18b20-
2.---11--------------------------------15----------
3.-12----------------------------------------------
1.-10----------------------------------------------------------10/0-
2.---------------------10--------------------------------------10/0-
3.------12b13b12-10--12--12-10h12p10---------------------------10/0-
4.-----------------------------------12--10--12--10-----------------
5.--------------------------------------------------12-11-10-8------
En la parte donde se canta solo hacer un Dm
en el traste numero 12 (apagado) para la vercion como guitar hero III xd
pero hay unos rasgueos que no pude sacar... :S
1.-------10-------10--------------
2.--13b14---13b14----13b14b13--10-
1.--------------12--13--12-------
2.-------10--13-----------13b15--
3.--9/10-------------------------
1.--13b15--15b17b15--13--15b17b15--13--18b20
1.---12--13--12--10--12--13--10-------10--------------------------
2.------------------------------13b14----13--10----------------10-
2.----------------------------------------------12b13b12--10---10-
4.----------------------------------------------------------12----
2.---10--13--10-----------------
3.--------------12b13b12--10----
4.---------------------------12-
2.---13/15---15/17--13/15-----------
3.-------------------------1b13b1b3-
1.----------10-----------------------
2.----13b14----3--10-----------------
3.-------------------12b13b12--10--9-
1.------------------------10--------
2.-------10--13b15--13b15-10--------
3.--9/10---------------------10--10-
1.-------10--12--13--13/15--15b17--17b19--20b22b20b22-----------
2.----11--------------------------------------------------------
3.-12-------------------------------------------------12b13b1b3-
1.----10--------10--------10--13--10---13---10-----------------------------------
2.--13---10--13----10--13-----------------------13--10--13--10-------------------
3.-------------------------------------------------------------12-10-12-10-------
4--------------------------------------------------------------------------12-10-
Le falta la ultima parte nomas lo trate de hacer sencillo espero que les guste y sirva