Savannah Tab by Relient K

yeah it goes a little like this
C#|-0-7-0-7-0-7------------|
A |----6---8---6-----------|
D |------------------------|
G |------------------------|
B |------------------------|
E |------------------------|x2
C#|-0--0--0----------------|
A |--1--1--1---------------|
D |------4-----------------|
G |---1-----1--------------|
B |------------------------|
E |------------------------| x2
C#|-0--0--0----0--0--0--0---|
A |--0--0-------0--0--0--0--|
D |---4--4------------------|
G |---------6-8--6--6--6--6-|
B |-------------------------|
E |-------------------------|
C#|-0-7-0-7-0-7-0----------|
A |----8---8---8-----------|
D |------------------------|
G |------------------------|
B |------------------------|
E |------------------------|