Intro
e|-----------------------------------------------------|
B|-----------------------------------------------------|
G|---10---10-7---10---10-7---10-7---10-7---10-7---10-7-|
D|-8----8------8----8------8------8------8------8------|
A|-----------------------------------------------------|
E|-----------------------------------------------------|

e|--------15----13-------------------15----13----------------|
B|--------------------16p15----------------------16p15-------|
G|-/15-15----15----15-------14-15-15----15----15-------14-15-|
D|-----------------------------------------------------------|
A|-----------------------------------------------------------|
E|-----------------------------------------------------------|


Verse
e|-6---3--5---8--|
B|-6---3--6---10-|
G|-7---3--7---10-|
D|-8---5--7---10-|
A|-8---5--5---8--|
E|-6---3--5---8--|


Chorus
e|-6---3--5---8--|
B|-6---3--6---10-|
G|-7---3--7---10-|
D|-8---5--7---10-|
A|-8---5--5---8--|
E|-6---3--5---8--|

e|--------|
B|--------|
G|-15--14-| (Tremolo picking)
D|--------|
A|--------|
E|--------|


Bridge
e|-3--3---3--8--6-|
B|-5--3---5--10-6-|
G|-6--3---6--10-7-| x2
D|-6--5---6--10-8-|
A|-3--5---3--8--8-|
E|-3--3---3--8--6-|
(Visited 1 times, 1 visits today)