We Shall Sail Tabs by Gogol Bordello

 -------------------------------------------------------------------------------
                         We Shall Sail - Gogol Bordello
-------------------------------------------------------------------------------
Tabbed by: Henry Morgensen
E-mail:

Tuning: Standard





 Intro:

    C                             D#
e|------------------------------------------|
B|-----1--1------1--1------1--1------4--4---|
G|-----0--0------0--0------0--0------0--0---|
D|-----2--2------2--2------2--2------5--5---|  x2
A|--3--3--3------3--3---3--3--3---6--6--6---|
E|-----3--3---3--3--3------3--3-------------|


(The song goes back and forth between that alternating bass note thing and occasionally 
just strumming.
Best thing to do is to listen to it to hear when to do either one.)


 C                         G             C
Hey, brother stranger you know we shall sail

 C                        G
Even if, even if only to fail

       C                       F        Am*
Cause Winnin' and losin' keep journey ammusin'


 *The first time, instead of strumming the chord there's something like this:
e|----------------------3-------3\1---1---0---|
B|------------3---3/5-------5---5\3---3---1---|
G|------3/5-----------------------------------|
D|--------------------------------------------|
A|--0-----------------------------------------|
E|--------------------------------------------|

 C            G                 C*
Down, down, down your destiny trail


*During this little weird part he's basically dragging the C chord up and down the neck.
Putting the chord names, but just use that to find where the C chord fingering shape is 
on the neck

        C          C#             C                D#
e|-----------------------------------------------------------|
B|-----------------2---------------------1---------4---------|
G|---------0---------------------------0---0-----------------|
D|-------2---2------------3-------2----------------------5---|
A|--3------------------4------------------------------6------|
E|-----------------------------------------------------------|


    C               D#add9      C
e|-------------------------------------------------------|
B|---------1--------6------------------1---------4-------|
G|-------0---0-----------------------0---0---------------|
D|--2------------------5--------2------------------------|
A|-------------------------------------------------------|
E|-------------------------------------------------------|


 C                         G             C
Hey, brother stranger you know we shall sail


(mostly just strumming chords from this point)

    C                              G
So living and loving may never go stale

       C                         F           Am   Asus4  Am
Cause hustle and bustle sure'll get you the muscle

 C    C    G                     C*
And, and, and for your coffin a nail


*same as the first except turns into strumming C after the first half

        C          C#             C                D#
e|-----------------------------------------------------------|
B|-----------------2---------------------1---------4---------|
G|---------0---------------------------0---0-----------------|
D|-------2---2------------3-------2----------------------5---|
A|--3------------------4------------------------------6------|
E|-----------------------------------------------------------|
                                                               C
                                                   Coffin a nail!

     F                  G            C    Am
But nothing in this life is good or ba----ad

     Dm              E              Am
It's we who dress it up as happy or sad

     F             G           C    Am
And nothing in life is a sure mu----ust

 F                  G                 C
Yet, in living and loving, indeed we trust


        C          C#           
(Visited 1 times, 1 visits today)

Comments are closed.