Shes Long Gone Tabs – The Black Keys

 The Black Keys – She’s Long Gone                                                        


Guitar 1 – Standard
Guitar 2 - Standard

Intro

Guitar 1
e|--------------------------------0----------------------------------0--|
B|--------------------------------0----------------------------------0--|
G|----------------------------------------------------------------------|
D|---2-(h)2---0-------0----------------2-(h)2---0-------0---------------|
A|--------------2p0h2---2-------------------------2p0h2---2-------------|
E|-0----------------------3--3(s5)--0-----------------------3----(s5)---|

e|----------------------------------------------------------------------|
B|---------------------------------0------------------------------------|
G|---------------------------------0--------------------------2b3--2-0--|
D|---2-(h)2---0-------0-----------------2-(h)2---0-------0--------------|
A|--------------2p0h2---2--------------------------2p0h2---2------------|
E|-0----------------------3--3(s5)---0----------------------------------|

Guitar 1
e|--------------------------------------0-----------------------------------0-----|
B|--------------------------------------0-----------------------------------0-----|
G|--------------------------------------------------------------------------------|
D|-----2--(h)2----0----------0-----------------2-(h)2---0-------0-----------------|
A|-------------------2p0h2-----2--------------------------2p0h2---2---------------|
E|-0-----------------------------3-3(s5)--0------------------------3----(s5)------|
Guitar 2***************************************************************************
e|--------------------------------------------------------------------------------|
B|--------------------------------------------------------------------------------|
G|--------------------------------------------------------------------------------|
D|---14-(12h)14--12----------12-------------14-(12h)14--12---------12h14-(12)-14--|
A|------------------14-12h14----14s10----------------------14---------------------|
E|--------------------------------------------------------------------------------|


Guitar 1
e|--------------------------------------0-----------------------------------0-----------|
B|--------------------------------------0-----------------------------------0-----------|
G|--------------------------------------------------------------------------------------|
D|-----2--(h)2----0----------0-----------------2-(h)2---0-------0-----------------------|
A|-------------------2p0h2-----2--------------------------2p0h2---2---------------------|
E|-0-----------------------------3-3(s5)--0------------------------3----(s5)------------|
Guitar 2*********************************************************************************
e|--------------------------------------------------------------------------------------|
B|-------------------------------------------------------------------15—15h17p15--------|
G|-------------------------------------------------------------14s16-------------16s14--|
D|---14-(12h)14--12----------12-----------------14-(12h)14------------------------------|
A|------------------14-12h14----14s10---12p10-------------------------------------------|
E|--------------------------------------------------------------------------------------|

Verse

e|--------------------------------0----------------------------------0--|x4     
B|--------------------------------0----------------------------------0--|
G|----------------------------------------------------------------------|
D|---2-(h)2---0-------0----------------2-(h)2---0-------0---------------|
A|--------------2p0h2---2-------------------------2p0h2---2-------------|
E|-0----------------------3--3(s5)--0-----------------------3----(s5)---|

Chorus

Guitar 1
e|--------------------------------------------------------------|
B|--------------------------------------------------------------|
G|-------------------------------------------------------------
(Visited 1 times, 1 visits today)

Comments are closed.