Sing chords – Ed Sheeran V5

 MY first Tab, hope you like. Play with the song (the tab/riff), it sounds pretty accurate.
I wrote G#m (etc.) but to sound more like the sound do Abm7 and Dbm7 instead of G#m and C#m
    Abm7 
e|-------------------------------------------------------------|
B|-------------------------------------------------------------|
G|-------------------------------------------------------------|
D|-------------------------------------------------------------|
A|--6--4-------------------------------------------------------|
E|---------7--6--4--------4---4-4--4---2--4--------------------|
    Dbm7 
e|-------------------------------------------------------------|
B|-------------------------------------------------------------|
G|-------------------------------------------------------------|
D|-------------------------------------------------------------|
A|---------------4--4--4--4--4--4--4--4------------------------|
E|---4---6---7---------------------------4---------------------|

                     G#m 
It's late in the evening
Glass on the side
I've been sat with you
                    C#m 
For most of the night
Ignoring everybody here
We wish they would disappear
So maybe we could get down now
 G#m 
I don't wanna know
If you're getting ahead of the program
I want you to be mine, lady
 C#m 
To hold your body close
Take another step into the no-man's land
For the longest time lady
  G#m 
I need you darling
Come on set the tone
If you feel you're falling
Won't you let me know
     C#m 
Oh-Oh-Oh-Ooh-Oh
Oh-Oh-Oh-Ooh-Oh
 G#m 
If you love me come on get involved
Feel it rushing through you from your head to toe
       C#m 
Oh-Oh-Oh-Ooh-Oh
Oh-Oh-Oh-Ooh-Oh

The chords are repeated, for the strumming pattern that would require a keen ear as the 
strumming pattern does vary.
THANKS! :) Leave a rating :D.
(Visited 1 times, 1 visits today)

Comments are closed.