Sup. This is only the intro of the song. Some parts of this are probably
inaccurate because I did it by ear but yeah make some corrections if you
find any mistakes. Thanks!


[Intro]

guitar 1

e |--------------------------------------1----------------------1-------------|
B |-----------------------1-----------1-----4-3TR--1--3------------4----3TR---|
G |--------2--3--------3--------2g3---------------------3----3----------------|
D |-----0-----------1--------------------------------------1g-----------------|
A |---------------------------------------------------------------------------|
Eb|--4-----------0-----------2------------------------------------------------|

e |--------------1------------------------------------------------------------|
B |--1--3-----------------3---------------------------------------------------|
G |--------2--------2--3-----2------------------------------------------------|
D |-----------3-----------------3---------------------------------------------|
A |---------------------------------------------------------------------------|
Eb|---------------------------------------------------------------------------|


guitar 2

e |---------------------------------------------------------------------------|
B |---------------------------------------------------------------------------|
G |---------------------------------------------------------------------------|
D |------------------------------------------------0--------------------------|
A |---------------------------------------------------------------------------|
Eb|--4-----------0-----------2--------------4-----------0------------4--------|

e |---------------------------------------------------------------------------|
B |---------------------------------------------------------------------------|
G |---------------------------------------------------------------------------|
D |--0------------------------------------------------------------------------|
A |--------------------------1------------------------------------------------|
Eb|--------2--------------------2---------------------------------------------|


If you're finger picking you could just combine guitars 1 and 2 together.


************************************

| g  Grace note
| b  Bend  
| TR trill

************************************