Standing In The Doorway chords – Bob Dylan V2

 ---------------------------------------------------------------------------
                Standing in the Doorway – Bob Dylan
---------------------------------------------------------------------------
: maguri
Tuning: Standard

Bob Dylan
Standing in the Doorway (1997)
(Dylan)

From: "Time Out Of Mind"


I usually play this with a capo but included chord voicings for a no-capo
version too.

---------------------------------------------------------------------------
capo 4th fret (as below)
CHORDS
        E-A-D-G-B-E
 Em/B     x-2-2-0-0-0
 C/G      3-x-2-0-1-0
 Bbsus2   x-1-3-3-1-1


VERSE (basic pattern with link)
   C Em/B Am C/G C Em/B Am C/G 
  1 + 2 + 3 + 4 +  1 + 2 + 3 + 4 +  1 + 2 + 3 + 4 +  1 + 2 + 3 + 4 +
e|0-------0-------|0-------0-------|0-------0-------|0-------0-------|
B|1-------0-------|1-------1-------|1-------0-------|1-------1-------|
G|0-------0-------|2-------0-------|0-------0-------|2-------0-------|
D|2-------2-------|2-------2-------|2-------2-------|2-------2---3-2-|
A|3-------2-------|0---------------|3-------2-------|0---------------|
E|----------------|--------3-------|----------------|--------3-------|

---------------------------------------------------------------------------
without capo (transpose this tab up 4 semi-tones)
CHORDS
        E-A-D-G-B-E
 G#m/D#   x-6-6-4-4-4
 E/B      x-2-2-1-0-0
 Dsus2    x-x-0-2-3-0


VERSE (basic pattern with link)
   E G#m/D# C#m E/B E G#m/D# C#m E/B       
  1 + 2 + 3 + 4 +  1 + 2 + 3 + 4 +  1 + 2 + 3 + 4 +  1 + 2 + 3 + 4 +
e|0-------4-------|4-------0-------|0-------0-------|0-------0-------|
B|0-------4-------|5-------0-------|0-------0-------|1-------0-------|
G|1-------4-------|6-------1-------|1-------0-------|2-------1---2-1-|
D|2-------6-------|6-------2-------|2-------2-------|2-------2-------|
A|2-------6-------|4-------2-------|2-------2-------|0-------2-------|
E|0---------------|----------------|0---------------|----------------|


---------------------------------------------------------------------------

Capo 4th fret 
(key: E; to play without capo: transpose up 4 semi-tones)

INTRO
|  C Em/B  |  Am C/G  | 
|  C Em/B  |  Am C/G  | 


 C Em/B Am C/G 
  I’m walking through the summer nights
 C Em/B Am C/G 
  Jukebox   playing low
 C Em/B Am C/G 
  Yesterday everything was going too fast
 C Em/B Am C/G 
  Today, it’s moving too slow
 F Bb(sus2) F Bb (sus2)
 I got no place left to turn
 F Bb(sus2) F G 
 I got nothing left to burn
       C Em/B Am C/G 
Don’t know if I saw you, if I would kiss you or kill you
 C Em/B Am C/G 
  It probably wouldn’t matter to you anyhow
 F C G D 
 You left me standing in the doorway, crying
 F C 
 I got nothing to go back to now


 C Em/B Am C/G 
  The light in this place is so bad
 C Em/B Am C/G 
  Making me sick in the head
 C Em/B Am C/G 
  All the laughter is just making me sad
 C
(Visited 1 times, 1 visits today)

Comments are closed.