Strife solo Tabs by Trivium

 Trivium - Strife
Tuning - Drop Db (Eb Bb Gb Db Ab Db)  / Drop C# (D# A# F# C# G# C#)
Tabbed by Lorcan Ward

Guitar Cover:


|-----------------------------------------------------------------------------|
|-----------------------------------------------------------------------------|
|------------------------------5-----------------------------------5----------|
|-----7--5--7--5-----7--5--7-------8~~-----7--5--7--5-----7--5--7-----8--7--5-|
|--5--------------8---------------------5--------------8----------------------|
|-----------------------------------------------------------------------------|

Play 4 times

Guitar solo starts at 3:23

Corey:
|--10p6-------------------------------------------------------------------------------|
|----------------------10p5-----------------------------------------------13p10-------|
|-------10-7---7-10-7-----------------------7p5-----10p7------12p10------------12-10--|
|------------8---------------10-7---7-10--------7-5------10-8-------12-10-------------|
|---------------------------------8---------------------------------------------------|
|-------------------------------------------------------------------------------------|

|-12p10----10-13-10-12-10----10-12-10----10-13-10-12-10----10-12-10----10-13-10-12-10-|
|-------13----------------13----------13----------------13----------13----------------|
|-------------------------------------------------------------------------------------|
|-------------------------------------------------------------------------------------|
|-------------------------------------------------------------------------------------|
|-------------------------------------------------------------------------------------|

|----------------------------------------------------------------12-12-13-13-12-12-------|
|-13b15--13b~~~--------------------------------------15-15-10-10-------------------13-13-|
|----------------------------10-10-------14-14-10-10-------------------------------------|
|----------------------12-12-------12-12-------------------------------------------------|
|----------------13-13-------------------------------------------------------------------|
|----------------------------------------------------------------------------------------|

|------------------------------------------15h17-15~~---13h15-13~~-----|
|--15-15-----------------------/18~~~~~--------------------------------|
|--------14-14-12-12-14------------------------------------------------|
|----------------------------------------------------------------------|
|----------------------------------------------------------------------|
|----------------------------------------------------------------------|

|--12-13-15--13--12---------------|
|--------------------13-----------|
|---------------------------------|
|---------------------------------|
|---------------------------------|
|---------------------------------|


Heafy:
|----------------------------------------------------------------------|
|--13b15--13b15~~~------15---17---17b18~~~-----17~~-----15----13~~~~~--|
|----------------------------------------------------------------------|
|----------------------------------------------------------------------|
|----------------------------------------------------------------------|
|----------------------------------------------------------------------|

|----------------------------------------------------------------------|
|--15~~~------15h17p15---13~~------13h15p13---10~~~---10h13p10---------|
|---------------------------------------------------------------12~~---|
|----------------------------------------------------------------------|
|----------------------------------------------------------------------|
|----------------------------------------------------------------------|

|----------------------------------------------------------------------|
|----
(Visited 1 times, 1 visits today)

Comments are closed.