Capo on 4th fret

[Intro]
    C                    C                    C                    C      F      C
e|--------------------|--------------------|--------------------|-------------------------|
B|--1------1-----1----|--1------1-----1----|--1------1-----1----|--1------1------1----1---|
G|--0------0-----0----|--0------0-----0----|--0------0-----0----|--0------0------0----0---|
D|--0h2----2-----0----|--0h2----2-----0----|--0h2----2-----0----|--0h2----2h3----2----0---|
A|--3------3-----3----|--3------3-----3----|--3------3-----3----|--3------3------3----3---|
E|--------------------|--------------------|--------------------|-------------------------|

Repeat (x2)

[Verse]
    C                    C                    C                    C      F      C
e|--------------------|--------------------|--------------------|-------------------------|
B|--1------1-----1----|--1------1-----1----|--1------1-----1----|--1------1------1----1---|
G|--0------0-----0----|--0------0-----0----|--0------0-----0----|--0------0------0----0---|
D|--0h2----2-----0----|--0h2----2-----0----|--0h2----2-----0----|--0h2----2h3----2----0---|
A|--3------3-----3----|--3------3-----3----|--3------3-----3----|--3------3------3----3---|
E|--------------------|--------------------|--------------------|-------------------------|
    I                                                watch the     sun    set    in   her

    C                    C                    C                    C      F      C
e|--------------------|--------------------|--------------------|-------------------------|
B|--1------1-----1----|--1------1-----1----|--1------1-----1----|--1------1------1----1---|
G|--0------0-----0----|--0------0-----0----|--0------0-----0----|--0------0------0----0---|
D|--0h2----2-----0----|--0h2----2-----0----|--0h2----2-----0----|--0h2----2h3----2----0---|
A|--3------3-----3----|--3------3-----3----|--3------3-----3----|--3------3------3----3---|
E|--------------------|--------------------|--------------------|-------------------------|
    eyes                                             never         was    too    good with

    F                    F                    C                    C      F      C
e|--------------------|--------------------|--------------------|--------------------|
B|--1------1-----1----|--1------1-----1----|--1------1-----1----|--1------1-----1----|
G|--0h2----2-----0----|--0h2----2-----0----|--0h2----2-----0----|--0h2----2-----0----|
D|--3------3-----3----|--3------3-----3----|--3------3-----3----|--3------3-----3----|
A|--3------3-----3----|--3------3-----3----|--3------3-----3----|--3------3-----3----|
E|--------------------|--------------------|--------------------|--------------------|
    goodbyes                                         but you're  honestly a better

    C                    C                    C                    C      F      C
e|--------------------|--------------------|--------------------|-------------------------|
B|--1------1-----1----|--1------1-----1----|--1------1-----1----|--1------1------1----1---|
G|--0------0-----0----|--0------0-----0----|--0------0-----0----|--0------0------0----0---|
D|--0h2----2-----0----|--0h2----2-----0----|--0h2----2-----0----|--0h2----2h3----2----0---|
A|--3------3-----3----|--3------3-----3----|--3------3-----3----|--3------3------3----3---|
E|--------------------|--------------------|--------------------|-------------------------|
    view.

             C
You spoke the words,
                      C
Sounded like a foreign language,
                              F
While my heart brought so much baggage,
                        C
Thought she'd only limit two.


[Pre-Chorus]
    F                    F                    F                    F
e|--------------------|--------------------|--------------------|--------------------|
B|--1------1-----1----|--1------1-----1----|--1------1-----1----|--1------1-----1----|
G|--0h2----2-----0----|--0h2----2-----0---