Sugar intro Tabs – Robin Schulz V6

 -------------------------------------------------------------------------------
                             SUGAR - Robin Schulz
-------------------------------------------------------------------------------
: Lele
 raffaele.benedetti

CAPO 1
     
      Am                  Em              C      D       Am   
e----------------------------------------------------------------------------|
B----------------------------------------------------------------------------|
G-------5---5h7p5------------------------------------------------------------|
D---------7-------7-5-------5-5-5h7p5-------2------3-------7----7h9p7---5----|
A-------------------------7-----------7-7\3---3--5----5-------------------7--|
E-----5--------------------------------------------------5---5---------------|



************************************

| /   slide up
| \   slide down
| h   hammer-on
| p   pull-off
| ~   vibrato
| +   harmonic
| x   Mute note
| b   Bend
| pb  Pre-bend
| br  Bend release
| pbr Pre-bend release
| brb Bend release bend

************************************
(Visited 1 times, 1 visits today)

Comments are closed.