Summoned To Succumb Tabs – Cauldron

 Tune: C (down 2 step)

Intro:

PM----------------------------
C|----------------------------|
G|----------------------------|
Eb|---------------------------|
Bb|-2--2--2--2--2--2--2--2----|
F|--0--0--0--0--0--0--0--0----|
C|----------------------------|

PM----------------------------
C|----------------------------|
G|----------------------------|
Eb|---------------------------|
Bb|-------------5--5----------|
F|--3--3--3--3--3--3--5--5----|
C|--1--1--1--1--------3--3----|

PM----------------------------
C|----------------------------|
G|----------------------------|
Eb|---------------------------|
Bb|---------------------------|
F|--3--3--3--3--3--3--3--3----|
C|--1--1--1--1--1--1--1--1----|

PM----------------------------
C|----------------------------|
G|----------------------------|
Eb|---------------------------|
Bb|---------------------------|
F|--2--2--2--2--5--5--5--5----|
C|--0--0--0--0--3--3--3--3----|

PM----------------------------
C|----------------------------|
G|----------------------------|
Eb|---------------------------|
Bb|-2--2--2--2--2--2--2--2----|
F|--0--0--0--0--0--0--0--0----|
C|----------------------------|

PM----------------------------
C|----------------------------|
G|----------------------------|
Eb|---------------------------|
Bb|-------------5--5----------|
F|--3--3--3--3--3--3--5--5----|
C|--1--1--1--1--------3--3----|

PM----------------------------
C|----------------------------|
G|----------------------------|
Eb|---------------------------|
Bb|-7--7--7--7--7--7--7--7----|
F|--5--5--5--5--5--5--5--5----|
C|----------------------------|

PM----------------------------
C|----------------------------|
G|----------------------------|
Eb|---------------------------|
Bb|-5--5--5--5----------------|
F|--3--3--3--3--5--5--5--5----|
C|--------------3--3--3--3----|

harmonic thing:

  PM------------------------------------
C|------------------------------------|
G|----------10------12--10------13----|
Eb|-----12------12----------12--------|
Bb|-15--------------------------------|
F|------------------------------------|
C|------------------------------------|

  PM------------------------------------
C|------------------------------------|
G|--(13)--12----10------12----13------|
Eb|-----------------12----------------|
Bb|-----------------------------------|
F|------------------------------------|
C|------------------------------------|

PM------------------------------------
C|------------------------------------|
G|----------10------12--10------13----|
Eb|-----12------12----------12--------|
Bb|-15--------------------------------|
F|------------------------------------|
C|------------------------------------|

  PM--------------------------------------
C|--------------------------------------|
G|--(13)--12----10--13--12--12-13-12----|
Eb|----------------------------------14-|
Bb|-------------------------------------|
F|--------------------------------------|
C|--------------------------------------|
                      ~end is not 100% correct, sorry~



RIFF

   PM----       PM      PM PM       PM
C|----------------------------------------------|  
G|----------------------------------------------|  
Eb|-------5-------4------------7--------5-------| 
Bb|-------7-------5------------9--------7-------|  
F|--0--0-------0---------0--0--------0----------|  
C|----------------------------------------------|  
   
   PM------------
C|------------------------------------------------|
G|------------------------------------------------|
Eb|----------------9--7-----10----9-----9---------|
Bb|---------------10--9-----12----10----10--------|
F|--0--0--0--0--0---------------------------------|
C|------------------------------------------------|

3x, then, this:


   PM----       PM      PM PM       PM
C|----------------------------------------------|  
G|----------------------------------------------|  
Eb|-------5-------4------------7----------------| 
Bb|-------7-------5------------9--------10------|  

Comments are closed.