Sunbather Tabs – Deafheaven V2

 Deafheaven - Sunbather

This is more or less just a finished version of rain_smell's partial tab. Not 100% on some of the chords,
especially in the outro, but this should give you a good idea of how it goes. 
Didn't tab out every single note, but it's pretty easy to hear the chord changes.





Intro
e|---------------------------------------------------------------------------|
B|---------------------------------------------------------------------------|
G|---------11-13-14--8--9-11-13----------------------------------------------|
D|--6----6--x--x--x--x--x--x--x--6----6--6-----------------------------------| x2
A|--7----7--9-11-12--6--7--9-11--7----7--6-----------------------------------|
E|--9----0-----------------------4----7--7-----------------------------------|

e|---------------------------------------------------------------------------|
B|---------------------------------------------------------------------------|
G|---------11-13-14-16-18-20-21----------------------------------------------|
D|--6----6--x--x--x--x--x--x--x--6----6--6-----------------------------------| x1
A|--7----7--9-11-12-14-16-18-19--7----7--6-----------------------------------|
E|--9----0-----------------------4----7--7-----------------------------------|

"I grip the wheel..."
e|---------0----------0----------0--------0----------------------------------|
B|----------0----------0----------0------------------------------------------|
G|---------------------------------------------------------------------------|
D|--2-2--------4-4--------6-6--------6-6-------6----7------------------------| x1
A|--x-x--------x-x--------7-7--------7-7-------7----6------------------------|
E|--5-5--------5-5--------5-5--------5-5-------0----0------------------------|

"I sweat against the leather..."
e|---------0----------0----------0--------0----------------------------------|
B|----------0----------0----------0------------------------------------------|
G|---------------------------------------------------------------------------|
D|--2-2--------4-4--------6-6--------6-6-------------------------------------| x1
A|--x-x--------x-x--------7-7--------7-7-------------------------------------|
E|--5-5--------5-5--------5-5--------5-5-------------------------------------|

"I watched the dogs twist through..." 
Guitar 1                       
e|---------------------------------------------------------------------------|
B|---------------------------------------------------------------------------|
G|---------------------------------------------------------------------------|
D|--6----7----7--6-------------------6---------------------------------------|
A|--7----7----7--7-----x2, end on----7---------------------------------------|
E|--9----7----5--5-------------------9---------------------------------------|
Guitar 2
e|---------------------------------------------------------------------------|
B|---------------------------------------------------------------------------|
G|--9---11----8----9---11----8---13---16---11----9--8------------------------|
D|--x----x----x----x----x----x----x----x----x----x--x--6---------------------|
A|--7----9----6----7----9----6---11---14----9----7--6--7---------------------|
E|-----------------------------------------------------9---------------------|

Not sure about the clean part, so I'll leave it out for now

Post-clean part, around 3:09 in the song
e|---------------------------------------------------------------------------|
B|---------------------------------------------------------------------------|
G|-----------9----6----------------------------------------------------------|
D|--6--------6----7----------------------------------------------------------| x2
A|--7--------7----7----------------------------------------------------------|
E|--0--------9----5----------------------------------------------------------|

e|---------------------------------------------------------------------------|
B|---------------------------------

Comments are closed.