Super Mario Bros 3 – Grass Land Tabs – Misc Computer Games V2

 This is the overworld theme of world 1 in Super Mario Bros 3. Play along with youtube
to get a feel for it


E|-------------------------------------------------------------------------------
B|--8-----8--10--8--10--12--10--12--10-----12--10--8-----8--10--8--10--12--------
G|-----9----------------------------------------------9--------------------------
D|-------------------------------------------------------------------------------
A|-------------------------------------------------------------------------------
E|-------------------------------------------------------------------------------


E|---------------------------------------------------------------------------------------
B|--13--10--13--15--13--15--17--15--17--15-----17--15--13--10--13--15--13--15--17--------
G|---------------------------------------------------------------------------------------
D|---------------------------------------------------------------------------------------
A|---------------------------------------------------------------------------------------
E|---------------------------------------------------------------------------------------


E|-----------------------------------------------------------------
B|--8-----8--10--10--12--10--12--10-----12--10--13--13-----13--13--
G|-----9-----------------------------------------------------------
D|-----------------------------------------------------------------
A|-----------------------------------------------------------------
E|-----------------------------------------------------------------

Comments are closed.