Sweet Secret Peace chords – Neil Finn

 SWEET SECRET PEACE      -       Neil Finn

Intro:
   Dm Am/C D5/B F/A G 
e|1-----1---0---0--/----------1---1--/---/
B|3-----3---1---1--/3-----3---1---1--/2--/
G|2-(2)-2-2-2-2-2-2/2---2-2-2-2-2-2-2/0--/
D|0-----0----------/(0)--------------/0--/
A|----------3---3--/2-----2---0---0--/2--/
E|---------  ------/-----------------/3--/


 Dm Am/C D5/B F/A G                            
     Real and        right and        true, the      sky is    blue
 Dm Am/C D5/B F/A G                                 
     Ever -       lasting        arms up-      holding     you
 Dmaj7/A Dm7/A F7         F6sus4                                            
          Sweet         secret      peace 
 Dmaj7/A Dm7/A F7         F6sus4                                            
          Sweet         secret      peace 

 Dm  -  Am/C  -  D5/B  -  F/A  -  G       2x 


 Dm Am/C D5/B F/A G                             
     Beauti -       ful are       you, your       hands on     you
 Dm Am/F D5/B F/A G                             
     All you        feel is        real and      right and      true
 Dmaj7/A Dm7/A F7          F6sus4                                            
          Sweet         secret      peace          secret
 Dmaj7/A Dm7/A F7         F6sus4                                             
          Sweet         secret      peace 


Break:
 Dmaj7/A Dm7/A F7         F6sus4                                    
          Whoeoe -        hoeoe -     hoeoe 

e|10------/----------/---------/0-------/7------/
B|----10--/-----10-8-/6---10---/8-6-3---/8------/
G|12------/11--------/---------/--------/-------/
D|----12--/12---12-10/9---11---/--------/-------/
A|--------/----------/---------/--------/-------/
E|--------/----------/---------/--------/-------/

e|5-3-1---/3---2---/----------------------|
B|----1-3-/3---3---/----------------------|
G|----2-2-/2---1---/----------------------|
D|------0-/--------/----------------------|
A|--------/--------/----------------------|
E|--------/--------/----------------------|

 Dm  -  Am/C  -  D5/B  -  F/A  -  G  -
 Dm  -  Am/F  -  D5/B  -  F/A  -  G Dm Am/C D5/B F/A G                          
     Real and       right and        true will      turn in -     to
 Dm Am/F D5/B F/A G                           
     Secret        peace in -        side the       heart of     you
 Dmaj7/A Dm7/A F7         F6sus4                                              
          Sweet        secret     peace 
 Dmaj7/A Dm7/A F7         F6sus4                                            
          Sweet        secret     peace          ooh
 Dmaj7/A Dm7/A F7         F6sus4                                            
          Sweet        secret     peace 
 Dmaj7/A Dm7/A F7         F6sus4  //                                           
          Sweet        secret     peace 



 Dm        xx0231
 Am/C      x3x210
 D5/B      x20
(Visited 1 times, 1 visits today)

Comments are closed.