Use Somebody Tab by Paramore

Title: Use Somebody (King of Leons Cover)
Artist: Paramore
Album: Radio 1's Live Lounge
Date: November 10, 2009
Transcribed by: Angelo de Guzman - Saint Louis University, Baguio City 
- email, friendster and my facebook :D) Corrections and suggestions are always appreciated :D
Tuning : Standard (e b g d a E) with a capo on the 2nd fret
Legend: x = dead string
^ = Bend to fret
Intro:
e|----------------------|----------------------|----------------------|
B|----------------------|----------------------|----------------------|
G|-9--9--9--9--9--9--9--|-9--9--9--9--9--9--9--|----------------------|
D|-10-10-10-10-10-10-10-|-10-10-10-10-10-10-10-|-3-3-3-3-3-3-3-2x-----| - 2x
A|-10-10-10-10-10-10-10-|-10-10-10-10-10-10-10-|-3-3-3-3-3-3-3--------|
E|-8--8--8--8--8--8--8--|-0--0--0--0--0--0--0--|-1-1-1-1-1-1-1--------|
Ohh whoa ah oohh...
e|----------------------|----------------------|----------------------|
B|----------------------|----------------------|----------------------|
G|----------------------|-9--9--9--9--9--9--9--|----------------------|
D|-7-7-7-7-7-7-7--------|-10-10-10-10-10-10-10-|-3-3-3-3-3-3-3-2x-----| - 2x
A|-7-7-7-7-7-7-7--------|-10-10-10-10-10-10-10-|-3-3-3-3-3-3-3--------|
E|-5-5-5-5-5-5-5--------|-8--8--8--8--8--8--8--|-1-1-1-1-1-1-1--------|
Ohh whoa ah oohh...
Verse:
e|----------------------|----------------------|----------------------|
B|----------------------|----------------------|----------------------|
G|-9--9--9--9--9--9--9--|-9--9--9--9--9--9--9--|----------------------|
D|-10-10-10-10-10-10-10-|-10-10-10-10-10-10-10-|-3-3-3-3-3-3-3-2x-----| - 2x
A|-10-10-10-10-10-10-10-|-10-10-10-10-10-10-10-|-3-3-3-3-3-3-3--------|
E|-8--8--8--8--8--8--8--|-0--0--0--0--0--0--0--|-1-1-1-1-1-1-1--------|
I've been roaming around
Always looking down at all I see
Painted faces fill the places I can't reach
e|----------------------|----------------------|----------------------|
B|----------------------|----------------------|----------------------|
G|----------------------|-9--9--9--9--9--9--9--|----------------------|
D|-7-7-7-7-7-7-7--------|-10-10-10-10-10-10-10-|-3-3-3-3-3-3-3-2x-----| - 2x
A|-7-7-7-7-7-7-7--------|-10-10-10-10-10-10-10-|-3-3-3-3-3-3-3--------|
E|-5-5-5-5-5-5-5--------|-8--8--8--8--8--8--8--|-1-1-1-1-1-1-1--------|
You know that I could use somebody
You know that I could use somebody
e|----------------------|----------------------|----------------------|
B|----------------------|----------------------|----------------------|
G|-9--9--9--9--9--9--9--|-9--9--9--9--9--9--9--|----------------------|
D|-10-10-10-10-10-10-10-|-10-10-10-10-10-10-10-|-3-3-3-3-3-3-3-2x-----| - 2x
A|-10-10-10-10-10-10-10-|-10-10-10-10-10-10-10-|-3-3-3-3-3-3-3--------|
E|-8--8--8--8--8--8--8--|-0--0--0--0--0--0--0--|-1-1-1-1-1-1-1--------|
Someone like you
And all you know
And how you speak
Countless lovers undercover of the street
e|----------------------|----------------------|----------------------|
B|----------------------|----------------------|----------------------|
G|----------------------|-9--9--9--9--9--9--9--|----------------------|
D|-7-7-7-7-7-7-7--------|-10-10-10-10-10-10-10-|-3-3-3-3-3-3-3-2x-----| - 2x
A|-7-7-7-7-7-7-7--------|-10-10-10-10-10-10-10-|-3-3-3-3-3-3-3--------|
E|-5-5-5-5-5-5-5--------|-8--8--8--8--8--8--8--|-1-1-1-1-1-1-1--------|
You know that I could use somebody
You know that I could use somebody
e|----------------------|----------------------|----------------------|
B|----------------------|----------------------|----------------------|
G|-9--9--9--9--9--9--9--|-9--9--9--9--9--9--9--|----------------------|
D|-10-10-10-10-10-10-10-|-10-10-10-10-10-10-10-|-3-3-3-3-3-3-3-2x-----| - 2x
A|-10-10-10-10-10-10-10-|-10-10-10-10-10-10-10-|-3-3-3-3-3-3-3--------|
E|-8--8--8--8--8--8--8--|-0--0--0--0--0--0--0--|-1-1-1-1-1-1-1--------|
Someone like you
Ohh whoa ah oohh...
e|----------------------|----------------------|----------------------|
B|----------------------|----------------------|----------------------|
G|-9--9--9--9--9--9--9--|-9--9--9--9--9--9--9--|----------------------|
D|-10-10-10-10-10-10-10-|-10-10-10-10-10-10-10-|-3-3-3-3-3-3-3-2x-----| - 2x
A|-10-10-10-10-10-10-10-|-10-10-10-10-10-10-10-|-3-3-3-3-3-3-3--------|
E|-8--8--8--8--8--8--8--|-0--0--0--0--0--0--0--|-1-1-1-1-1-1-1--------|
Ohh whoa ah oohh...
e|----------------------|----------------------|----------------------|
B|----------------------|----------------------|----------------------|
G|----------------------|-9--9--9--9--9--9--9--|----------------------|
D|-7-7-7-7-7-7-7--------|-10-10-10-10-10-10-10-|-3-3-3-3-3-3-3-2x-----| - 2x
A|-7-7-7-7-7-7-7--------|-10-10-10-10-10-10-10-|-3-3-3-3-3-3-3--------|
E|-5-5-5-5-5-5-5--------|-8--8--8--8--8--8--8--|-1-1-1-1-1-1-1--------|
Ohh whoa ah oohh...
e|----------------------|----------------------|----------------------|
B|----------------------|----------------------|----------------------|
G|-9--9--9--9--9--9--9--|-9--9--9--9--9--9--9--|----------------------|
D|-10-10-10-10-10-10-10-|-10-10-10-10-10-10-10-|-3-3-3-3-3-3-3-2x-----| - 2x
A|-10-10-10-10-10-10-10-|-10-10-10-10-10-10-10-|-3-3-3-3-3-3-3--------|
E|-8--8--8--8--8--8--8--|-0--0--0--0--0--0--0--|-1-1-1-1-1-1-1--------|
Off in the night
While you live it up I'm off to sleep
Waging wars to shape the poet and the beat
(PM)                   (PM)
e|----------------------|----------------------|----------------------|
B|----------------------|----------------------|----------------------|
G|----------------------|-9--9--9--9--9--9--9--|----------------------|
D|-7-7-7-7-7-7-7--------|-10-10-10-10-10-10-10-|-3-3-3-3-3-3-3-2x-----| - 2x
A|-7-7-7-7-7-7-7--------|-10-10-10-10-10-10-10-|-3-3-3-3-3-3-3--------|
E|-5-5-5-5-5-5-5--------|-8--8--8--8--8--8--8--|-1-1-1-1-1-1-1--------|
I hope it's gonna make you notice
I hope it's gonna make you notice
e|----------------------|----------------------|----------------------|
B|----------------------|----------------------|----------------------|
G|-9--9--9--9--9--9--9--|-9--9--9--9--9--9--9--|----------------------|
D|-10-10-10-10-10-10-10-|-10-10-10-10-10-10-10-|-3-3-3-3-3-3-3-2x-----| - 2x
A|-10-10-10-10-10-10-10-|-10-10-10-10-10-10-10-|-3-3-3-3-3-3-3--------|
E|-8--8--8--8--8--8--8--|-0--0--0--0--0--0--0--|-1-1-1-1-1-1-1--------|
Someone like me (Ohh whoa ah oohh...)
Someone like me (Ohh whoa ah oohh...)
e|----------------------|----------------------|----------------------|
B|----------------------|----------------------|----------------------|
G|----------------------|-9--9--9--9--9--9--9--|----------------------|
D|-7-7-7-7-7-7-7--------|-10-10-10-10-10-10-10-|-3-3-3-3-3-3-3-2x-----| - 2x
A|-7-7-7-7-7-7-7--------|-10-10-10-10-10-10-10-|-3-3-3-3-3-3-3--------|
E|-5-5-5-5-5-5-5--------|-8--8--8--8--8--8--8--|-1-1-1-1-1-1-1--------|
Someone like me (Ohh whoa ah oohh...)
Somebody (Ohh whoa ah oohh...)
Bridge:
(PM)                       (PM)
e|-------------------------|-------------------|
B|-------------------------|-------------------|
G|-------------------------|-------------------|
D|-11-11-11-11-11-11-11-2x-|-4-4-4-4-4-4-4-2x--|
A|-11-11-11-11-11-11-11----|-4-4-4-4-4-4-4-----|
E|-9--9--9--9--9--9--9-----|-2-2-2-2-2-2-2-----|
I'm ready
I'm ready
(PM)                       (PM)
e|-------------------------|-------------------|
B|-------------------------|-------------------|
G|-------------------------|-------------------|
D|-11-11-11-11-11-11-11-2x-|-4-4-4-4-4-4-4-2x--|
A|-11-11-11-11-11-11-11----|-4-4-4-4-4-4-4-----|
E|-9--9--9--9--9--9--9-----|-2-2-2-2-2-2-2-----|
I'm ready
I'm ready now
Solo:
e|------------------------------------|
B|------------------------------------|
G|-9----11---5----10---9----9^-7----5-|
D|-x-3x-x-4x-x-3x-x-5x-x-4x-x--x-2x-x-| - 4x
A|-7----9----3----8----7----7--5----3-|
E|------------------------------------|
Ohh whoa ah oohh...
Someone like you
Somebody
Someone like you
Somebody
e|-----------------------|-----------|
B|-----------------------|-----------|
G|-9----11---5----10---9-|-5-5-5-5-5-|
D|-x-3x-x-4x-x-3x-x-5x-x-|-5-5-5-5-5-|
A|-7----9----3----8----7-|-3-3-3-3-3-|
E|-----------------------|-----------|
Someone like you
Somebody
e|----------------|----------------|---------------|
B|----------------|----------------|---------------|
G|-9--9--9--9--9--|-9--9--9--9--9--|---------------|
D|-10-10-10-10-10-|-10-10-10-10-10-|-3-Let it ring-|
A|-10-10-10-10-10-|-10-10-10-10-10-|-3-------------|
E|-8--8--8--8--8--|-0--0--0--0--0--|-1-------------|
I've been roamin' around
I was lookin' down at all I see
Enjoy! :D