: Tyler Gjersee
E Standard tuning

Great song and sampled for DJ Shadow's "Organ Donor"


Main Theme:
 Cm                                  B                 G
e-----------------|-----------------|-----------------|-----------------|
B-----------------|-----------------|-----------------|-----------------|
G-----------------|-----------------|-----------------|-----------------|
D---5-3-5---3-----|---5-3-5---3-----|---3-1-3-0-1-0---|---5-3-5---3-----|
A-3-------6---5-6-|-3-------6---5-3-|-1-------------3-|-2-------6---5-6-|
E-----------------|-----------------|-----------------|-----------------|

Repeat at octaves as the song progresses

Distorted Guitar (1'45")
e-----------------|-----------------|-----------------|-----------------|
B-----------------|-----------------|-----------------|-----------------|
G-----------------|-----------------|-----------------|-----------------|
D-----------------|-----------------|-----------------|-----------------|
A-3---------------|-------------3---|-1---------------|-----------------|
E-----------------|-----------------|-----------------|-3---------------|
(Visited 1 times, 1 visits today)