Terukir Di Bintang Tabs by Yuna

 YUNA - Terukir Di Bintang
INTRO:
e|--------3-----3-----3-----3-----2-----2-----2-----2-----1-----1-------|
B|------0---2-----2-----2-----2-----2-----2-----2-----2-----2-----2-----|
G|--1-2-------2-----2-----2-----2-----2-----2-----2-----2-----2-----2---|
D|----------------------------------------------------------------------|
A|----------------------------------------------------------------------|
E|----------------------------------------------------------------------|
A              D (Strum 4X)
e|--1-----1-----0------0------0------0---------0-----||-------5--------|
B|----2-----2-----2------2------2------2-------2-----||-------7--------|
G|------2-----2-----2------2------2------2-----2-----||-------7--------|
D|---------------------------------------------2-----||-------7--------|
A|---------------------------------------------0-----||-------5--------|
E|---------------------------------------------X-----||-------X--------|
CHORDS:
D             Dm             Bm             Em           Daug/F#
e|---5---|     e|---5---|     e|---2---|     e|---7---|     e|---6---|
B|---7---|     B|---6---|     B|---3---|     B|---8---|     B|---7---|
G|---7---|     G|---7---|     G|---4---|     G|---9---|     G|---7---|
D|---7---|     D|---7---|     D|---4---|     D|---9---|     D|---4---|
A|---5---|     A|---5---|     A|---2---|     A|---7---|     A|---X---|
E|---X---|     E|---X---|     E|---X---|     E|---X---|     E|---X---|
A             Gm
e|---5---|     e|---3---|
B|---5---|     B|---3---|
G|---6---|     G|---3---|
D|---7---|     D|---5---|
A|---7---|     A|---5---|
E|---5---|     E|---3---|
D               Dm            Bm
Jika engkau minta intan permata tak mungkin ku mampu
Em              Daug/F#         A              D
Tapi sayangkan ku capai bintang dari langit untukmu
D               Dm         Bm
Jika engkau minta satu dunia akan aku cuba
Em            Daug/F#       A             D
Ku hanya mampu jadi milikmu pastikan kau bahagia
Gm                      D
Hati ini bukan milik ku lagi
Gm                        A
Seribu tahun pun akan ku nanti
A    A
Kan kamu
D                  Dm          Bm
Sayangku, jangan kau persoalkan siapa di hatiku
Em              Daug/F#             A          D
Terukir di bintang tak mungkin hilang cintaku padamu
Interlude: D  Dm  Bm  Em  Daug/F#  A  D
Gm                      D
Hati ini bukan milik ku lagi
Gm                        A
Seribu tahun pun akan ku nanti
A    A
Kan kamu
D                  Dm          Bm
Sayangku, jangan kau persoalkan siapa di hatiku
Em              Daug/F#             A          D
Terukir di bintang tak mungkin hilang cintaku padamu
D                  Dm          Bm
Sayangku, jangan kau persoalkan siapa di hatiku
Em              Daug/F#             A          D
Terukir di bintang tak mungkin hilang cintaku padamu
Em              Daug/F#             A          D
Terukir di bintang tak mungkin hilang cintaku padamu
OUTRO:
e|--------3-----3-----3-----3-----2-----2-----2-----2-----1-----1-------|
B|------0---2-----2-----2-----2-----2-----2-----2-----2-----2-----2-----|
G|--1-2-------2-----2-----2-----2-----2-----2-----2-----2-----2-----2---|
D|----------------------------------------------------------------------|
A|----------------------------------------------------------------------|
E|----------------------------------------------------------------------|
A
e|--1-----1-----0------0------0------0---------0-----|
B|----2-----2-----2------2------2------2-------2-----|
G|------2-----2-----2------2------2------2-----2-----|
D|---------------------------------------------2-----|
A|---------------------------------------------0-----|
E|---------
(Visited 1 times, 1 visits today)