This is for the clean guitar.


[Intro]

e|-----------------------------------------------------------------------------|
B|-----0-----0-----0-----0------------------0-----0-----0-----0----------------|
G|-----------------------------------------------------------------------------|
D|-2-----4-----------------2-----4------5-----7-----2-----4-----5------4-------|
A|-------------2-----5---------------------------------------------------------|
E|---0-----0-----0-----0------------------0-----0-----0-----0------------------|

e|-----------------------------------------------------------------------------|
B|-----0-----0-----0-----0------------------0-----0--------0-----0-----0-------|
G|-----------------------------------------------------------------------------|
D|-2-----4-----------------2-----4------5-----7-----2----------2-----2---------|
A|-------------2-----5---------------------------------------------------------|
E|---0-----0-----0-----0------------------0-----0--------0---0-----0-----------|

e|-----------------------------------------------------------------------------|
B|-----0-----0-----0-----0------------------0-----0-----0-----0----------------|
G|-----------------------------------------------------------------------------|
D|-2-----4-----------------2-----4------5-----7-----2-----4-----5------4-------|
A|-------------2-----5---------------------------------------------------------|
E|---0-----0-----0-----0------------------0-----0-----0-----0------------------|

e|-----------------------------------------------------------------------------|
B|-----0-----0-----0-----0----------------------------------0-----0------------|
G|-----------------------------------------------------------------------------|
D|-2-----4-----------------2-----4----------2-----2-----------2----------------|
A|-------------2-----5--------------------2-----2---------------2--------------|
E|---0-----0-----0-----0----------------3-----5-----0--------------------------|


[Verse]

e|-----------------------------------------------------------------------------|
B|-----0-----0-----0-----0------------------0-----0-----0-----0----------------|
G|-----------------------------------------------------------------------------|
D|-2-----4-----------------2-----4------5-----7-----2-----4-----5------4-------|
A|-------------2-----5---------------------------------------------------------|
E|---0-----0-----0-----0------------------0-----0-----0-----0------------------|

e|-----------------------------------------------------------------------------|
B|-----0-----0-----0-----0----------------------------------0-----0------------|
G|-----------------------------------------------------------------------------|
D|-2-----4-----------------2-----4----------2-----2-----------2-----2----------|
A|-------------2-----5--------------------2-----2------------------------------|
E|---0-----0-----0-----0----------------3-----5-----0-----------0-----0--------|

e|------------------------------------------------------------------------------------------------|
B|-----0------------0---------------------------------0------0-----0-------0-----0----0---0-----0-|
G|------------------------------------------------------------------------------------------------|
D|---2----2---2---2---2---2---2---------2-----2-----2---2------2---------------2-----2---2----2--2|
A|------------------------------------2-----2-----2----------------------2---0--------------------|
E|-0--------0---0-------0---0-------3-----5-----0----------0-----0-----3-----------0----0---0-----|

e|--------------------------------------------------------------------------------------------------|
B|-----------------0-----0-----0----------------------------0------------------------0-----0--------|
G|-------------------------------------0-----2------------------------------------------------------|
D|-----2----2----2-----2-----2---2---0-----2----------2---------2--------2-----2---2-----2-------2--|
A|---2----