The Heart Collector solo Tabs – Nevermore

 Nevermore - The Heart Collector
Lorcan Ward
Eb Tuning
Check out my cover video:

Guitar Solo 3:15
|--16-----16--16-----16--16--16-----14--14-----14--14-----14--14-----14--|
|--14-----14--14-----14--14--14-----14--14-----14--12-----12--12-----12--|
|------------------------------------------------------------------------|
|------------------------------------------------------------------------|
|------------------------------------------------------------------------|
|------------------------------------------------------------------------|
|--12--------12--11---\---------12-------12--------------12-------12---|
|--13--------13--13---\----5/9--------9------9-----9h10-------10-------|
|----------------------------------------------------------------------|
|----------------------------------------------------------------------|
|----------------------------------------------------------------------|
|----------------------------------------------------------------------|
|----------------12--------12------------------------------------------|
|--10b12r10---9---------9---------9h10--9------------------------------|
|------------------------------------------11b13r11--11p9---11~~~~-----|
|----------------------------------------------------------------------|
|----------------------------------------------------------------------|
|----------------------------------------------------------------------|
|-----------------------------------------16\12--14--16---16/17--16----|
|---------17------17--19b21~~~~~~~~~-----------------------------------|
|--13/16------16-------------------------------------------------------|
|----------------------------------------------------------------------|
|----------------------------------------------------------------------|
|----------------------------------------------------------------------|
|--14/16h17h19p17p16h17p16h17p16h17----------------16h17h19t24p19p17p--|
|-----------------------------------19p17p16h17h19---------------------|
|----------------------------------------------------------------------|
|----------------------------------------------------------------------|
|----------------------------------------------------------------------|
|----------------------------------------------------------------------|
|--16h17h19p17p16h17p16------------------------------------------------|
|-----------------------19p17h19p17p16h17p16---------------------------|
|----------------------------------------------18~~~~~~~---------------|
|----------------------------------------------------------------------|
|----------------------------------------------------------------------|
|----------------------------------------------------------------------|
|--16-21p16----------16-21p16----------16-21p16----16-19p16----------16-|
|-----------17----17----------17----17----------17----------17----17----|
|--------------18----------------18----------------------------16-------|
|-----------------------------------------------------------------------|
|-----------------------------------------------------------------------|
|-----------------------------------------------------------------------|
|--19p16----------16-19/21\19p16-19p16----------16-19p16----------16---|
|--------17----17----------------------17----17----------17----17------|
|-----------16----------------------------16----------------16---------|
|----------------------------------------------------------------------|
|----------------------------------------------------------------------|
|----------------------------------------------------------------------|
|--19p16----16-20p16----16---------------------------------------------|
|--------17------------------------------------------------------------|
|--------------------20----20-17-20p17---------------------------------|
|--------------------------------------18~~~~--------------------------|
|---------------