The Jam Interlude intro Tabs – Sunset Sons

 Tuning: Drop D (DADGBe)
[Intro]
e|---------------------------------------------------------------------------|
B|---------------------------------------------------------------------------|
G|---------------------------------------------------------------------------|
D|---------------------------------------------------------------------------|
A|-----------5---4---7-5---0-2-5-2-5-----------5---4---7-5---0-2-5-2-5-------|
D|-0-0-0-0-0---0---0-----0-----------0-0-0-0-0---0---0-----0-----------------|
e|-5-------5-------5-------3---------5-------5-------5-------3---------------|
B|---3-------3-------3-------3---------3-------3-------3-------3-------------|
G|-----2-------2-------2--------2--------2-------2-------2--------2----------|
D|---------------------------------------------------------------------------|
A|---------------------------------------------------------------------------|
D|---------------------------------------------------------------------------|