The Precious Blood Tabs by Peter Gagnon

 -------------------------------------------------------------------------------
                        THE PRECIOUS BLOOD - PETER GAGNON
-------------------------------------------------------------------------------
:christiantabber
   fw5treehouse@hotmail.com

Tuning:   STANDARD


INTRO:

E|-3-----0-------0-------0-------5-|-3-----0-------0-------0-------0-|---|
B|-----3-------3-------3-------3---|-----3-------3-------3-------3---|---|
G|---0-------0-------0-------0-----|---2-------2-------2-------2-----|---|
D|---------------------------------|-3-------3-------3-------3-------|---|
A|-3-------3-------3-------3-------|---------------------------------|---|
E|---------------------------------|---------------------------------|---|


E|-3-----0-------0-------0-------5-|-3-----0-------0-------0-------0--|
B|-----3-------3-------3-----------|-----3-------3-------3-------3----|
G|---0-------0-------0-------0h5---|---2-------2-------2-------2------|
D|---------------------------------|-3-------3-------3-------3--------|
A|-3-------3-------3-------3-------|----------------------------------|
E|---------------------------------|----------------------------------|

VERSE:
E|-------0-------0-------0-------0-|-------0-------0-------0-------0--|
B|-----3-------3-------3-------3---|-----3-------3-------3-------3----|
G|-----------5---------------5-----|---2-------5-------2-------5------|
D|---5-----5---------5-----5-------|-3-------7-------3-------7--------|
A|-3---------------3---------------|----------------------------------|
E|---------------------------------|----------------------------------|


E|-------0-------0-------0-------0-|-------0-------0-------0-------0--|
B|-----3-------3-------3-------3---|-----3-------3-------3-------3----|
G|-----------5---------------5-----|---2-------5-------2-------5------|
D|---5-----5---------5-----5-------|-3-------7-------3-------7--------|
A|-3---------------3---------------|----------------------------------|
E|---------------------------------|----------------------------------|


E|-------0-------0-------0-------0-|-------0-------0------------------|
B|---0-------0---------1-----0-----|-----1-------1---------3-------3--|
G|-----5-------5-----2---------5---|---0-------0---------4-------5----|
D|-7-------7-------3-------7-------|-------------------5-------5------|
A|---------------------------------|-3-------3---------------5--------|
E|---------------------------------|-----------------3----------------|


E|-------------------------------0-|-------0-------0-|----------------------|
B|-----1h3-----1h3-----------0-----|-----1-------1---|-----------------0===-|
G|---2-------2---------5h7-----5---|---2-------2-----|-----5h7-----5h7-0===-|
D|-3-------3-------5h7-----7-------|-3-------3-------|-5h7-------7----------|
A|---------------------------------|-----------------|---------5------------|
E|---------------------------------|-----------------|-----------------3===-|

CHORUS
E|-------1-------1-------0-------0-|-------0-------0------------------|
B|-----1-------1-------1-------1---|-----1-------1---------3-------3--|
G|---2-------2-------0-------0-----|---2-------2---------4-------4----|
D|---------3-----------------------|-------------------5-------5------|
A|-----------------3-------3-------|-0-------0------------------------|
E|-1-------------------------------|-----------------3-------3--------|

E|-------1-------1-------0-------0-|-------0-------0------------------|
B|-----1-------1-------1-------1---|-----1-------1---------3-------3--|
G|---2-------2-------0-------0-----|---2-------2---------4-------4----|
D|---------3-----------------------|-------------------5-------5------|
A|-----------------3-------3-------|-0-------0------------------------|
E|-1-------------------------------|-----------------3-------3--------|


E|-------1-------1-------0-------0-|---------------7-|-8-----7-----5--|
(Visited 1 times, 1 visits today)

Comments are closed.