The Sleeping Fields Tabs – Ghost Bath

 The Sleeping Fields
75 bpm, 3/4
Drop C
d ---------------------------------------------------
A ---------------------------------------------------
F -----2-------------3-------------7-----------7----- 11x
C -3-------3---3/5-------5---5/8-------8---7-------7- 11x
G ---------------------------------------------------
C ---------------------------------------------------
After 4th time, play this over:
d -----5---5-6-5------------------------------
A ---6-----------6----------6-8---6--5------6-
F -7---------------7------7------------------- 2x
C -------------------------------------------- 2x 
G --------------------------------------------
C --------------------------------------------
d ---------5h6-5------------------------------
A -------6-------6----------6-8---6--5------6-
F -----7-----------7------7------------------- 2x
C ---7---------------------------------------- 2x
G -5------------------------------------------ 
C -------------------------------------------- 
d -----5---5-6-5------------------------------------5---5-6-5--------------------------------
A ---6-----------6----------6-8---6--5------6-----6-----------6----------6-8------6-5------6- lr 
F -7---------------7------7---------------------7---------------7------7---------------------
C -------------------------------------------------------------------------------------------
G -------------------------------------------------------------------------------------------
C -------------------------------------------------------------------------------------------
Ending
d ------------------------------------------------
A ------------------------------------------------
F -----2-------------3-------------7------------7- lr
C -3-------3---3/5-------5---5/8----------8-7----- 
G ------------------------------------------------
C ------------------------------------------------
************************************
| /   slide up
| \   slide down
| h   hammer-on
| p   pull-off
| ~   vibrato
| +   harmonic
| x   mute note
| b   bend
| pb  pre-bend
| br  bend release
| pbr pre-bend release
| brb bend release bend
| lr  let note ring
************************************