The Wisp Sings intro Tabs – Winter Aid

 [Intro]
Begin with chords:
C G F C
e|---------------------------------------------------------------------------|
B|---------------------------------------------------------------------------|
G|---------------------------------------------------------------------------|
D|---2-----2----2----2-----2----2----2-----2-----2----2----2-----2-----2-----|
A|-3---3-----3----3----3-----3----3----3------2----2----2----2-----2---------|
E|---------------------------------------------------------------------------|
e|---------------------------------------------------------------------------|
B|---------------------------------------------------------------------------|
G|---------------------------------------------------------------------------|
D|----2-----2-----2----2---2---2----2----2----2----2----2----2---2----2----2-|
A|-2----2-----2-----0----0---0---0----0----0---0----0-----3----3---3----3----|
E|---------------------------------------------------------------------------|
e|---------------------------------------------------------------------------|
B|-------------------------------------1-----------1---------0-------0-------|
G|------------------------2--------2-------2-------------0-------0--------0--|
D|-----2----2---2----2--------2----------------2-----------------------------|
A|--2----2---2----2-----0---0---0----0---0---0---0---------------------------|
E|-----------------------------------------------------3----3---3---3---3----|
e|-----------------------------------------------------------------------------------------|
B|----0-------0----------------------------------------------------------------------------|
G|--------0------------------------------------------------------------0---2----0---2----0-|
D|-------------------3---3---3---3---2---2----2----2----3---3---3---3----------------------|
A|--3---3---3---3--0---0---0---0---0---0---0----0-----0---0--0---0-------0---0----0---0----|