Other tabs I've seen have been slightly off in tabbing this section. I think 
this is at the very least extremely close to how it is played on the recording.


[Intro]

e|--7----7-/9--7--5----------------------------------------------------------|
B|-------------------7--7-7--9-9b10----10br9--7--5--7------------------------|
G|---------------------------------------------------------------------------|
D|---------------------------------------------------------------------------|
A|---------------------------------------------------------------------------|
E|---------------------------------------------------------------------------|

e|---------7-----------------------------------------------------------------|
B|--7b8------8br7--5--7------------------------------------------------------|
G|----------------------4----------------------------------------------------|
D|---------------------------------------------------------------------------|
A|---------------------------------------------------------------------------|
E|---------------------------------------------------------------------------|

The rest of the song has a part thats almost identical to this but is slightly 
different. 

************************************

| b   Bend
| br  Bend release

************************************
(Visited 1 times, 1 visits today)