Theme From Defiance Tabs – Bear McCreary

 -------------------------------------------------------------------------------
THEME FROM DEFIANCE - Bear McCreary
-------------------------------------------------------------------------------
: Todd Hailey
Chewy1297
There's plenty of sound effects in this song that I can't
reproduce on a guitar, mainly because I'm not Tom Morello.
The song is not a guitar song, so some parts cannot be 
reproduced entirely correct. This is as close as I think
a guitar can get to it though. Get your stretch on for 
the full chorus.
Tuning: Standard
:NOTE:
Main Chord Structure For The Chorus:
Emin   Gmaj   Cmaj   Amin
Emin   Gmaj   C#min  Cmaj
________________________________________________________________________________________________________________
|:INTRO:|
Cmaj   C#m
Cmaj   C#m
________________________________________________________________________________________________________________
|:CHORUS:|
(slow)
e|---------------------------------------------------------------------------|
B|---------------------------------------------------------------------------|
G|---------------------------------------------------------------------------|
D|---------------7----------------------9--11---------------------------------|
A|--7--9-10-7--5----7-10-7---7--9-10-7--------11-9-11-7----------------------|
E|---------------------------------------------------------------------------|
________________________________________________________________________________________________________________
|:VERSE:|
Cmaj   C#m
Cmaj   C#m
Cmaj   C#m
Cmaj   C#m
________________________________________________________________________________________________________________
|:CHORUS:|
e|---------------------------------------------------------------------------|
B|---------------------------------------------------------------------------|
G|---------------------------------------------------------------------------|
D|---------------7--------------------9--11-----------------------------------|
A|--7--9-10-7--5----10-7---7--9-10-7--------11-9-11-7------------------------|
E|--0+------3+---8+----5+--0+------3+----9+---------8+-----------------------|
+ | Hold Note
________________________________________________________________________________________________________________
|:BRIDGE:|
e|-----------------------12------|
B|--14-10-------10-12-14---------|
G|--------11t-9-------------12---|
D|-------------------------------|
A|-------------------------------|
E|-------------------------------|
________________________________________________________________________________________________________________
|:VERSE:|
Cmaj   C#m
Cmaj   C#m
Cmaj   C#m
Cmaj   C#m
________________________________________________________________________________________________________________
|:INTERLUDE:|
e|-----------------------------------------------------------------------------------------------------|
B|-----------------------------------------------------------------------------------------------------|
G|-----------------------------------------------------------------------------------------------------|
D|-----------------------------------------------------------------------------------------------------|
A|-----------------------------------------------------------------------------------------------------|
E|-0/12\0----0-0-0-0-0-0-0-0-0-0-0-0-0---1-1-1-1-1-1-1-1-1-1-1-1-1---0-0-0-0-1-1-1-1-1-1-1-1-3-3-3-3-0-|
e|---------------------------------------------------------------------------|
B|---------------------------------------------------------------------------|
G|-------------------------------------