[Intro]

e|-----4-----|
B|---------5-|
G|-6---------|
D|-----------| x12
A|-----------|
D|-----------|

e|------4-----------4-----------4-----------4-----|
B|----------5-----------5-----------5-----------5-|
G|--6-----------6-----------6-----------6---------|
D|------------------------------------------------| x2
A|--7---------------------------------------------|
D|------------------------------------------------|

e|------4-----|
B|----------5-|
G|--6---------|
D|--------7---| x16
A|--7---------|
D|------------|


[Verse 1] x2

e|------4---------4---------4---------4-----|
B|----------5---------5---------5---------5-|
G|--6---------6---------6---------6---------|
D|--------7---------7---------7---------7---| x4
A|--4---------7---------7---------7---------|
D|------------------------------------------|

e|------4---------4---------4---------4-----|
B|----------5---------5---------5---------5-|
G|--6---------6---------6---------6---------|
D|--------7---------7---------7---------7---| x4
A|------------7---------7---------7---------|
D|--4---------------------------------------|


[Chorus]

e|------7---5-4-----5-4------5-4--|
B|-5------------------------------|
G|--------------------------------|
D|--------7---6---7---6----7------| x2
A|-7----------------------------5-|
D|--------------------------------|


[Verse 2] x3

e|------4-----------4-----------4-----------4-----|
B|----------5-----------5-----------5-----------5-|
G|--6-----------6-----------6-----------6---------|
D|--------7-----------7-----------7-----------7---| x4
A|--4-----------7-----------7-----------7---------|
D|------------------------------------------------|

e|--5---4-------5---4-------5---4-------5---4-----|
B|----------5-----------5-----------5-----------5-|
G|--------------0-----------0-----------0---------|
D|--------7-----------7-----------7-----------7---| x4
A|------------------------------------------------|
D|--4---------------------------------------------|


[Chorus] x2

e|------7---5-4-----5-4------5-4--|
B|-5------------------------------|
G|--------------------------------|
D|--------7---6---7---6----7------|
A|-7----------------------------5-|
D|--------------------------------|