This Is What I Said chords – Cloud Control Vsion 1

 -------------------------------------------------------------------------------
This Is What I Said - Cloud Control 
-------------------------------------------------------------------------------
:Pbpbpb
Tuning:eBGDAE
Intro/ Main Riff:
G C D 
e|-----3-----2--0-------0-3-0----2--0---------|
B|---3---3--------3---1---------------3-------|
G|0-------------------------------------------|
D|--------------------------------------------| X4
A|--------------------------------------------|
E|--------------------------------------------|
Bass:
G C D 
e|-------------------------------|
B|-------------------------------|
G|----------------------2--------| repeat throughout song
D|--0-----------2-----0---0------|
A|------------3---3--------------|
E|3---3--------------------------|
G C D 
Ozone made of atoms in the atmosphere 
G C D 
I was made out of atoms in the at- and this is what I said:
G C D 
yah,         yah yah yah yah 
e|-----3-----2----0---------------0-3-0----2--0--------|
B|---3---3-------------3-------1----------------3------|
G|0----------------------------------------------------|
D|-----------------------------------------------------| X2
A|-----------------------------------------------------|
E|-----------------------------------------------------|
G C D 
She said can you feel the tangible chill?
G C D 
Can you feel the tangible chill in the air?
G C D 
Is it here or is it there?  Is it 
G C D 
where? Where is it? I don't know, because I don't 
G C D 
care,         yah yah yah yah 
e|-----3-----2----0---------------0-3-0----2--0--------|
B|---3---3-------------3-------1----------------3------|
G|0----------------------------------------------------|
D|-----------------------------------------------------| X2
A|-----------------------------------------------------|
E|-----------------------------------------------------|
G C 
A sooooooooul is what I've got 
G C 
I knoooooooow it's not much, but whatever it is it's mine 
G C D 
e|-----3-----2--0-------0-3-0----2--0---------|
B|---3---3--------3---1---------------3-------|
G|0-------------------------------------------| X2
D|--------------------------------------------| 
A|--------------------------------------------|
E|--------------------------------------------|
G C D 
Can you feel the tangible chill? 
G C D 
Can you hold it to you? Is it real? 
oh yeah oh yeaheheh 
G C D 
yah,         yah yah yah yah 
e|-----3-----2----0---------------0-3-0----2--0--------|
B|---3---3-------------3-------1----------------3------|
G|0----------------------------------------------------|
D|-----------------------------------------------------| X2
A|-----------------------------------------------------|
E|-----------------------------------------------------|
G C 
A sooooooooul is what I've got 
G C 
I knoooooooow it's not much, but whatever it is it's mine 
************************************
| /   slide up
| \   slide down
| h   hammer-on
| p   pull-off
| ~   vibrato
| +   harmonic
| x   Mute note
| b   Bend
| pb  Pre-bend
| br  Bend release
| pbr Pre-bend release
| brb Bend release bend
************************************