[Intro]

e|--------------------------------------------------------|
B|------9------9------9-12-9---------9------9------9-12-9-|
G|-9-11---9-11---9-11--------11-9-11---9-11---9-11--------|
D|--------------------------------------------------------|
A|--------------------------------------------------------|
E|--------------------------------------------------------|

e|------------------------------------------------------------------------------|
B|12-9------12-9-----------9------9------12-9------12-9-----------9------9------|
G|-----11-9------11-9-9-11---9-11---11-9------11-9------11-9-9-11---9-11---11-9-|
D|------------------------------------------------------------------------------|
A|------------------------------------------------------------------------------|
E|------------------------------------------------------------------------------|