Tourist Tab by Julian Casablancas

-----------------------------------------------------------------
Tourist- Julian Casablancas
-----------------------------------------------------------------
Tabbed by: Max Denys
Email: galiqx
Tuning:Standard
Just the intro to this amazing piece, some mistakes i'm sure, but sounds pretty good to me.
(Sorry about the "Hammer-on" parts, don't know if it's written right. I don't
quite understand the tabbing out process yet)
0:06 - 1:04
e|----2-4h5h4h-2----2-2--|-----2-4h5h4h-2----2-2--|-------7h9h7h-5-----5-5-|
B|--2-------------2------|--2--------------2------|-----5-----------7------|
G|-4-------------4-------|-4--------------4-------|-4-6------------6-------|
D|-----------------------|------------------------|------------------------|
A|-----------------------|------------------------|------------------------|
E|-----------------------|------------------------|------------------------|
e|-------7h9h7h-5-----5-5|------------------------|------------------------|
B|-----5-----------7-----|-----5-7h9h7h-5-----5-5-|-----5-7h9h7h-5-----5-5-|
G|-4-6------------6------|-4-6------------4-6-----|-4-6------------4-6-----|
D|-----------------------|------------------------|------------------------|
A|-----------------------|------------------------|------------------------|
E|-----------------------|------------------------|------------------------|
e|-----------------------|
B|-----5h7h5h3-----3-3---|
G|-4-6---------4-6-------|x2
D|-----------------------|
A|-----------------------|
E|-----------------------|   
e|-------2----2----2----2---2~----------------|
B|---0--2-2----0----0----0--2~--7h5h3---------|
G|--2--------4----2----1--------------6h4h2---|__First Ending 0:29-00:34
D|-4----------------------------------------4-|
A|--------------------------------------------|
E|--------------------------------------------|
e|-------2----2----2----2---2~------2~-----|
B|---0--2-2----0----0----0--2~--2---2-~----|
G|--2--------4----2----1-------------------|__Second Ending 0:58-1:04
D|-4---------------------------4-4---------|
A|-----------------------------------------|
E|-----------------------------------------|
That's about it
Amazing Album &
Amazing show Friday Julian!