Towards The Sun solo Tabs – Fleshgod Apocalypse

 4:08
Lead
e|-------------------------------------------------------------------------s12~--14-14-14-----------|
B|-----------------------------------------------------8--7-7s-5--5s-3---------------------15-------|
G|--11-9---12~---11-11-11-9--9~---------------------9------------------5----------------------14-12-|
D|---------------------------------10-10~--------9-----------------------2--------------------------|
A|------------------------------------------7-10----------------------------------------------------|
E|--------------------------------------------------------------------------------------------------|
e|-----------------------------------------10----12------------------------------------------------|
B|-----s12-12-10--12b-12-10-12---12-10-12-----13---------------------------------------------------|
G|12br---------------------------------------------------------------------------------------------|
D|-------------------------------------------------------------------------------------------------|
A|-------------------------------------------------------------------------------------------------|
E|-------------------------------------------------------------------------------------------------|
************************************
| r   Release
| b   Bend
| br  Bend release
| /   Slide up
| \   Slide down
| ~   Vibrato
| A.  Artificial Harmonic
| *   Palm mute
************************************
I will post some more Fleshgod soli in the future!
(Visited 1 times, 1 visits today)