Trails In The Sky – The Whereabouts Of Light Tabs – Misc Computer Games

 (ENG)The Legend of Heroes - Trails in the Sky FC: The Whereabouts of Light (or Stars)
(JAP)Eiyuu Densetsu - Sora no Kiseki FC: Hoshi no Arika
Heavily based on https://www.youtube.com/watch?v=Np2aa_qGwcc with minor change
Capo 4
Tuning: Drop D (DADGBE)
(intro)
0:00 - 0:13                    A.H
e|-------------------------------------------------------------------------------|
B|----0-1--0--------------------3*-----------------------------------------------|
G|--2---------2--0---------------------------------------------------------------|
D|--------2-----------2----0-----------------------------------------------------|
A|------0-----------3----3-------------------------------------------------------|
D|---------------2---------3-----------------------------------------------------|
e|------------------------------0---------------------------------------==-------|
B|----0-1---0-------------------0-----0------------------------------------------|
G|--2----------2--0-------------2-2-2---1----------------------------------------|
D|-------------------2----0------------------------------------------------------|
A|--------3-------3-----3--------------------------------------------------------|
D|------3-----------------0-----2------------------------------------------------|
(verse 1)
0:14 - 0:26
e|--------0-----------------------------------------0----------------------------|
B|--1-0-1---0-----------1------------1-0--------0-1---3--------------------------|
G|----------------2-0-2---0---------------0---2----------------------------------|
D|-----------------------------3-2-3------2--------------------------------------|
A|--0---------------------3--------0---------------------------------------------|
D|----------2-----3------------0-------2------3-------5--------------------------|
0:27 - 0:38
e|--------0-----------------0------0-1-0-------0-------------0-------------------|
B|--1-0-1---0---------0---3-----1--------3-1-0-----0-----1-----------------------|
G|----------------0-2---5-----0------------------1---2---------------------------|
D|------2----------------------------0-----------------2---2---------------------|
A|--0-----------2-----------3--------------------2---0---------------------------|
D|----------2-------3---5--------------------2-----------------------------------|
(verse 2)
0:39 - 1:03
e|--------0---------------------------------------------------0------------------|
B|--1-0-1---0--------------1-----1-----------1-0----------0-1---3----------------|
G|--2----------------2-0-2---0---------------------0----2-----------0------------|
D|------2-------2--------------2---2---3-2-3-------2--------------0---0----------|
A|--0---------2---2------3---3-------------0-----2---2------3--------------------|
D|----------2--------3-----------------0-------2--------3-------5----------------|
e|--------0-----------------0------0-1-0-------0-------------0-------------------|
B|--1-0-1---0---------0---3-----1--------3-1-0-----0-----1-------1---------------|
G|--2-----------0-0-2---5-----0----------2-------1---2---------------------------|
D|------2-------2--------------------0-----------------2---2---2---2-------------|
A|--0---------2-------------3--------------------2---0---------------------------|
D|----------2-------3---5--------------------2-----------------------------------|
(pre-chorus)
1:03 - 1:26
e|----------0-------3---------------------------------------0--------------------|
B|------1-------3-------6---5---3---0---------0-1-------1-------1----------------|
G|----2---2---2---2---0---0---0---0---------------2---------------2--------------|
D|--3-----------------------------------2-------------2---2---2------------------|
A|------------------------------------2---2---------0----------------------------|
D|------------------5---------------2-------2------------------------------------|
e|----------------------------1---0----------------------------------------------|
B|------------1-----0---1---3-----