From the Chasing Amy (1997) soundtrack
 Originally written and recorded by Dave Pirner
 Transcription by Dave Musgrave (bentbullets)
   
  
e||   ||--------------------|--------------------|--------------------|--------------------|   
b||   ||------6---9---------|------6---9---------|------6---9---------|------6---9---------|   
G|| 5 ||6h8-x-------6---8---|6h8-x-------6---8---|6h8-x-------6---8---|6h8-x-------6---8---|    
D|| 4 ||--------------------|--------------------|--------------------|--------------------|   
A||   ||--------------------|--------------------|--------------------|--------------------|   
E||   ||--------------------|--------------------|--------------------|--------------------|  
 ||     6-string Banjo                                                              
 ||
 ||
G||   ||--------------------|--------------------|--------------------|--------------------|  
D|| 5 ||--------------------|--------------------|--------------------|--------------------|    
A|| 4 ||--------------------|--------------------|--------------------|--------------------|  
E||   ||--------------------|--------------------|--------------------|--------------------|  
        Tuba, arranged for Upright Bass, pizzicato



e|6---------4---------|--------------------|6---------4---------|--------------------||    
b|--9---6-----7---4---|7p6-------6p4-------|--9---6-----7---4---|7p6-------6p4-------||    
G|--------------------|------6---------6---|--------------------|------6---------6---||     
D|--------------------|--------------------|--------------------|--------------------||   
A|--------------------|--------------------|--------------------|--------------------||   
E|--------------------|--------------------|--------------------|--------------------||  
 |                                                                  
 |
 |
G|--------------------|--------------------|--------------------|--------------------||
D|3---------6-4-------|4-3-------3---------|3---------6-4-------|4-3-------3---------||  
A|--6---3---------6---|------4-----6---4---|--6---3---------6---|------4-----6---4---|| 
E|--------------------|--------------------|--------------------|--------------------||


* Note - I have not submitted the structure of the song, as these are the only two riffs
 played throughout the song (with some minor similes).
  

************************************

| x   Dead note
| g   Grace note
| (n) Ghost note
| h   Hammer-on
| p   Pull-off
| r   Release
| >   Accented note
| t   Tapping
| b   Bend
| br  Bend release
| pb  Pre-bend
| pbr Pre-bend release
| /   Slide up
| \   Slide down
| ~   Vibrato
| s   Slap
| P   Pop
| PM  Palm mute
| TR  Trill
| N   Tremolo

************************************
(Visited 1 times, 1 visits today)