Two Beers In Tabs – Free Throw

 -------------------------------------------------------------------------------
                             TWO BEERS IN - FREE THROW
-------------------------------------------------------------------------------
: Nick Holcman
 nick.holcman
father-punk.tumblr.com

Tuning: EADGBE

INTRO: 0:00-0:25/
GUITAR 1
e|----------------------------------------------------------------------------------------------|
B|----------------------------------------------------------------------------------------------|
G|----------------------------------------------------------------------------------------------|
D|-----------------------------------6----------------------------------------------------------| x2
A|--------9----6----9----6----9--------9-6-9-6-4--------4----2----4----2----4-----4-2-4-6-4-6---|
E|----777---77---77---77---77---77------------------000---00---00---00---00---00----------------|


GUITAR 2
(come in second time)
e|----------------------------------------------------------------------------------------------|
B|----------------9-----------------------------------------------------------------------------|
G|---11-8-11-8-11---11-8-11-8---------------------------8----8----------------------------------|
D|----------------------------11---11-9-11-9-11-11-9-11---11------------------------------------| x1
A|----------------------------------------------------------------------------------------------|
E|----------------------------------------------------------------------------------------------|


VERSE: 0:26-0:50/1:05-1:28
GUITAR 1
e|----------------------------------------------------------------------------------------------|
B|----------------------------------------------------------------------------------------------|
G|----------------------------------------------------------------------------------------------|
D|-----------------------------------6----------------------------------------------------------| x2
A|--------9----6----9----6----9--------9-6-9-6-4--------4----2----4----2----4-----4-2-4-6-4-6---|
E|----777---77---77---77---77---77------------------000---00---00---00---00---00----------------|

GUITAR 2
e|----------------------------------------------------------------------------------------------|
B|----------------9-----------------------------------------------------------------------------|
G|---11-8-11-8-11---11-8-11-8---------------------------8----8----------------------------------|
D|----------------------------11---11-9-11-9-11-11-9-11---11------------------------------------| x2
A|----------------------------------------------------------------------------------------------|
E|----------------------------------------------------------------------------------------------|

GUITAR 3
e|-------------------------------------|--------------------------------|
B|--4------4------4---4-7-4---4--------|-------------------7-4---4------|
G|----6-4----6-4----6-------6---6-4----|---666-4-666-4-666-----6---6-4--| x2
D|-------------------------------------|--------------------------------|
A|-------------------------------------|--------------------------------|
E|-------------------------------------|--------------------------------|


CHORUS:0:51-1:04/1:29-end)

GUITAR 1 (distortion)
     "fuck........everything.................about this/him"
e|------------------------------------------------------------------------|
B|------------------------------------------------------------------------|
G|---4444444444---444444444444---9999999999---4444444444------------------|
D|---4444444444---444444444444---9999999999---4444444444------------------|
A|---2222222222---222222222222---7777777777---2222222222------------------|
E|------------------------------------------------------------------------|

GUITAR 2 (distortion)
e|------------------------------------------------------------------------|
B|------------------------------------------------------------------------|
G|---4444
(Visited 1 times, 4 visits today)

Comments are closed.